ISO-10303-21;
HEADER;
FILE_DESCRIPTION (( 'STEP AP203' ),
    '1' );
FILE_NAME ('341840.step',
    '2021-11-26T06:52:59',
    ( '' ),
    ( '' ),
    'SwSTEP 2.0',
    'SolidWorks 2019',
    '' );
FILE_SCHEMA (( 'CONFIG_CONTROL_DESIGN' ));
ENDSEC;

DATA;
#1 = CARTESIAN_POINT ( 'NONE',  ( 1.396592535537253342E-15, 3.954999999999998295, 0.4000000000000000222 ) ) ;
#2 = ORIENTED_EDGE ( 'NONE', *, *, #15, .F. ) ;
#3 = EDGE_CURVE ( 'NONE', #13, #13, #206, .T. ) ;
#4 = PERSON_AND_ORGANIZATION ( #170, #129 ) ;
#5 = AXIS2_PLACEMENT_3D ( 'NONE', #41, #95, #149 ) ;
#6 = CALENDAR_DATE ( 2021, 26, 11 ) ;
#7 = DIRECTION ( 'NONE',  ( 3.491481338843133355E-15, -1.030643345817079849E-16, 1.000000000000000000 ) ) ;
#8 = APPROVAL_ROLE ( '' ) ;
#9 = COORDINATED_UNIVERSAL_TIME_OFFSET ( 1, 0, .AHEAD. ) ;
#10 = APPROVAL_STATUS ( 'not_yet_approved' ) ;
#11 = EDGE_LOOP ( 'NONE', ( #103 ) ) ;
#12 = DIRECTION ( 'NONE',  ( 0.0000000000000000000, 1.000000000000000000, 0.0000000000000000000 ) ) ;
#13 = VERTEX_POINT ( 'NONE', #183 ) ;
#14 = DIRECTION ( 'NONE',  ( -1.788153497702520628E-30, 1.000000000000000000, -5.121475168173194796E-16 ) ) ;
#15 = EDGE_CURVE ( 'NONE', #60, #60, #232, .T. ) ;
#16 = DIRECTION ( 'NONE',  ( -3.491481338843133355E-15, -5.121475168173194796E-16, -1.000000000000000000 ) ) ;
#17 = VERTEX_POINT ( 'NONE', #167 ) ;
#18 = LOCAL_TIME ( 7, 52, 59.00000000000000000, #124 ) ;
#19 = PLANE ( 'NONE',  #5 ) ;
#20 = CC_DESIGN_PERSON_AND_ORGANIZATION_ASSIGNMENT ( #86, #151, ( #52 ) ) ;
#21 = DIRECTION ( 'NONE',  ( 1.788153497702520628E-30, -1.000000000000000000, 5.121475168173194796E-16 ) ) ;
#22 = ORIENTED_EDGE ( 'NONE', *, *, #15, .T. ) ;
#23 = EDGE_LOOP ( 'NONE', ( #226 ) ) ;
#24 = DIRECTION ( 'NONE',  ( 0.0000000000000000000, 1.000000000000000000, 0.0000000000000000000 ) ) ;
#25 = AXIS2_PLACEMENT_3D ( 'NONE', #130, #111, #116 ) ;
#26 = PERSON_AND_ORGANIZATION ( #170, #129 ) ;
#27 = PERSON_AND_ORGANIZATION ( #170, #129 ) ;
#28 = DIRECTION ( 'NONE',  ( 3.491481338843133355E-15, 5.121475168173194796E-16, 1.000000000000000000 ) ) ;
#29 = DIRECTION ( 'NONE',  ( -3.491481338843133355E-15, 1.030643345817079849E-16, -1.000000000000000000 ) ) ;
#30 = FACE_BOUND ( 'NONE', #168, .T. ) ;
#31 = CC_DESIGN_PERSON_AND_ORGANIZATION_ASSIGNMENT ( #4, #43, ( #146 ) ) ;
#32 = CIRCLE ( 'NONE', #157, 3.954999999999989857 ) ;
#33 = AXIS2_PLACEMENT_3D ( 'NONE', #64, #160, #198 ) ;
#34 = APPLICATION_PROTOCOL_DEFINITION ( 'international standard', 'config_control_design', 1994, #184 ) ;
#35 = APPROVAL_STATUS ( 'not_yet_approved' ) ;
#36 = FACE_OUTER_BOUND ( 'NONE', #104, .T. ) ;
#37 = EDGE_CURVE ( 'NONE', #17, #17, #227, .T. ) ;
#38 = PRODUCT_DEFINITION_FORMATION_WITH_SPECIFIED_SOURCE ( 'ANY', '', #139, .NOT_KNOWN. ) ;
#39 = DIRECTION ( 'NONE',  ( 3.598472008923184252E-31, 1.000000000000000000, 1.030643345817079726E-16 ) ) ;
#40 = ADVANCED_FACE ( 'NONE', ( #96, #148 ), #221, .T. ) ;
#41 = CARTESIAN_POINT ( 'NONE',  ( 5.704294892063837930E-14, 3.954999999999998295, 16.33774990747593847 ) ) ;
#42 = AXIS2_PLACEMENT_3D ( 'NONE', #71, #29, #164 ) ;
#43 = PERSON_AND_ORGANIZATION_ROLE ( 'classification_officer' ) ;
#44 = EDGE_LOOP ( 'NONE', ( #121 ) ) ;
#45 =( LENGTH_UNIT ( ) NAMED_UNIT ( * ) SI_UNIT ( .MILLI., .METRE. ) );
#46 = CARTESIAN_POINT ( 'NONE',  ( 5.704294892063837930E-14, 8.367338045496193861E-15, 16.33774990747593847 ) ) ;
#47 = SHAPE_DEFINITION_REPRESENTATION ( #90, #131 ) ;
#48 = ORIENTED_EDGE ( 'NONE', *, *, #87, .T. ) ;
#49 = PERSON_AND_ORGANIZATION ( #170, #129 ) ;
#50 = EDGE_CURVE ( 'NONE', #241, #241, #101, .T. ) ;
#51 = CARTESIAN_POINT ( 'NONE',  ( 5.704294892063840455E-14, 8.367338045496197017E-15, 16.33774990747594558 ) ) ;
#52 = PRODUCT_DEFINITION ( 'UNKNOWN', '', #38, #242 ) ;
#53 = DIRECTION ( 'NONE',  ( 1.788153497702520628E-30, -1.000000000000000000, 5.121475168173193810E-16 ) ) ;
#54 = ORIENTED_EDGE ( 'NONE', *, *, #87, .F. ) ;
#55 = DIRECTION ( 'NONE',  ( 0.0000000000000000000, 1.000000000000000000, 0.0000000000000000000 ) ) ;
#56 = ADVANCED_FACE ( 'NONE', ( #91, #223 ), #228, .T. ) ;
#57 = CARTESIAN_POINT ( 'NONE',  ( 5.704294892063839193E-14, 3.954999999999998295, 16.33774990747594202 ) ) ;
#58 = EDGE_CURVE ( 'NONE', #77, #77, #32, .T. ) ;
#59 = AXIS2_PLACEMENT_3D ( 'NONE', #89, #80, #55 ) ;
#60 = VERTEX_POINT ( 'NONE', #92 ) ;
#61 = MECHANICAL_CONTEXT ( 'NONE', #184, 'mechanical' ) ;
#62 = DATE_AND_TIME ( #6, #207 ) ;
#63 = PRODUCT_RELATED_PRODUCT_CATEGORY ( 'detail', '', ( #139 ) ) ;
#64 = CARTESIAN_POINT ( 'NONE',  ( 6.659190722113099420E-30, 9.768025835914067215E-31, 1.907268026332786700E-15 ) ) ;
#65 = AXIS2_PLACEMENT_3D ( 'NONE', #134, #16, #14 ) ;
#66 = AXIS2_PLACEMENT_3D ( 'NONE', #196, #28, #53 ) ;
#67 = AXIS2_PLACEMENT_3D ( 'NONE', #179, #201, #197 ) ;
#68 = APPROVAL_DATE_TIME ( #62, #120 ) ;
#69 = EDGE_LOOP ( 'NONE', ( #144 ) ) ;
#70 = ORIENTED_EDGE ( 'NONE', *, *, #58, .F. ) ;
#71 = CARTESIAN_POINT ( 'NONE',  ( 3.505447264198505636E-13, -1.034765919200348261E-14, 100.4000000000000057 ) ) ;
#72 = DATE_TIME_ROLE ( 'creation_date' ) ;
#73 = APPROVAL_PERSON_ORGANIZATION ( #49, #120, #153 ) ;
#74 = UNCERTAINTY_MEASURE_WITH_UNIT (LENGTH_MEASURE( 1.000000000000000082E-05 ), #45, 'distance_accuracy_value', 'NONE');
#75 = CYLINDRICAL_SURFACE ( 'NONE', #65, 3.954999999999994298 ) ;
#76 = DIRECTION ( 'NONE',  ( -3.491481338843133355E-15, 1.030643345817079849E-16, -1.000000000000000000 ) ) ;
#77 = VERTEX_POINT ( 'NONE', #57 ) ;
#78 = CC_DESIGN_DATE_AND_TIME_ASSIGNMENT ( #79, #72, ( #52 ) ) ;
#79 = DATE_AND_TIME ( #113, #18 ) ;
#80 = DIRECTION ( 'NONE',  ( -3.491481338843133355E-15, 1.030643345817079849E-16, -1.000000000000000000 ) ) ;
#81 = CYLINDRICAL_SURFACE ( 'NONE', #182, 2.999999999999993339 ) ;
#82 = PERSON_AND_ORGANIZATION_ROLE ( 'design_supplier' ) ;
#83 = EDGE_LOOP ( 'NONE', ( #163 ) ) ;
#84 = APPROVAL_PERSON_ORGANIZATION ( #162, #166, #8 ) ;
#85 =( NAMED_UNIT ( * ) PLANE_ANGLE_UNIT ( ) SI_UNIT ( $, .RADIAN. ) );
#86 = PERSON_AND_ORGANIZATION ( #170, #129 ) ;
#87 = EDGE_CURVE ( 'NONE', #147, #147, #222, .T. ) ;
#88 = MANIFOLD_SOLID_BREP ( 'Corps-Déplacer/Copier1[1]', #128 ) ;
#89 = CARTESIAN_POINT ( 'NONE',  ( 5.704294892063839193E-14, -1.683839322776369221E-15, 16.33774990747594202 ) ) ;
#90 = PRODUCT_DEFINITION_SHAPE ( 'NONE', 'NONE',  #52 ) ;
#91 = FACE_BOUND ( 'NONE', #44, .T. ) ;
#92 = CARTESIAN_POINT ( 'NONE',  ( 5.704294892063839193E-14, 3.954999999999998295, 16.33774990747594202 ) ) ;
#93 = CC_DESIGN_PERSON_AND_ORGANIZATION_ASSIGNMENT ( #27, #215, ( #38 ) ) ;
#94 = AXIS2_PLACEMENT_3D ( 'NONE', #107, #125, #24 ) ;
#95 = DIRECTION ( 'NONE',  ( -3.491481338843133355E-15, 1.030643345817079849E-16, -1.000000000000000000 ) ) ;
#96 = FACE_BOUND ( 'NONE', #69, .T. ) ;
#97 = ADVANCED_FACE ( 'NONE', ( #36 ), #19, .T. ) ;
#98 = SECURITY_CLASSIFICATION_LEVEL ( 'unclassified' ) ;
#99 = FACE_OUTER_BOUND ( 'NONE', #23, .T. ) ;
#100 = ADVANCED_FACE ( 'NONE', ( #137, #99 ), #81, .T. ) ;
#101 = CIRCLE ( 'NONE', #25, 3.954999999999998295 ) ;
#102 = CALENDAR_DATE ( 2021, 26, 11 ) ;
#103 = ORIENTED_EDGE ( 'NONE', *, *, #50, .T. ) ;
#104 = EDGE_LOOP ( 'NONE', ( #22 ) ) ;
#105 = APPLICATION_CONTEXT ( 'configuration controlled 3d designs of mechanical parts and assemblies' ) ;
#106 = PERSON_AND_ORGANIZATION ( #170, #129 ) ;
#107 = CARTESIAN_POINT ( 'NONE',  ( 3.526396152231565067E-13, -1.040949779275250653E-14, 101.0000000000000000 ) ) ;
#108 = DIRECTION ( 'NONE',  ( -3.116549088262538859E-30, 1.000000000000000000, -8.772305820363143159E-16 ) ) ;
#109 = CARTESIAN_POINT ( 'NONE',  ( 6.281823795492845674E-14, -1.854318916842698535E-15, 17.99185842870425844 ) ) ;
#110 = ORIENTED_EDGE ( 'NONE', *, *, #3, .F. ) ;
#111 = DIRECTION ( 'NONE',  ( -3.491481338843133355E-15, -5.121475168173194796E-16, -1.000000000000000000 ) ) ;
#112 = CONICAL_SURFACE ( 'NONE', #66, 3.724059892324148802, 0.5235987755982978165 ) ;
#113 = CALENDAR_DATE ( 2021, 26, 11 ) ;
#114 = DIRECTION ( 'NONE',  ( -3.491481338843133355E-15, 1.030643345817079849E-16, -1.000000000000000000 ) ) ;
#115 = APPROVAL ( #35, 'UNSPECIFIED' ) ;
#116 = DIRECTION ( 'NONE',  ( -1.801754941651776583E-30, 1.000000000000000000, -5.071489302397431739E-16 ) ) ;
#117 = AXIS2_PLACEMENT_3D ( 'NONE', #238, #76, #12 ) ;
#118 = EDGE_LOOP ( 'NONE', ( #48 ) ) ;
#119 = PLANE ( 'NONE',  #236 ) ;
#120 = APPROVAL ( #10, 'UNSPECIFIED' ) ;
#121 = ORIENTED_EDGE ( 'NONE', *, *, #186, .T. ) ;
#122 = DIRECTION ( 'NONE',  ( 3.491481338843133355E-15, 5.121475168173194796E-16, 1.000000000000000000 ) ) ;
#123 =( NAMED_UNIT ( * ) SI_UNIT ( $, .STERADIAN. ) SOLID_ANGLE_UNIT ( ) );
#124 = COORDINATED_UNIVERSAL_TIME_OFFSET ( 1, 0, .AHEAD. ) ;
#125 = DIRECTION ( 'NONE',  ( -3.491481338843133355E-15, 1.030643345817079849E-16, -1.000000000000000000 ) ) ;
#126 = COORDINATED_UNIVERSAL_TIME_OFFSET ( 1, 0, .AHEAD. ) ;
#127 = DIRECTION ( 'NONE',  ( -3.491481338843133355E-15, -5.121475168173194796E-16, -1.000000000000000000 ) ) ;
#128 = CLOSED_SHELL ( 'NONE', ( #145, #56, #100, #40, #97 ) ) ;
#129 = ORGANIZATION ( 'UNSPECIFIED', 'UNSPECIFIED', '' ) ;
#130 = CARTESIAN_POINT ( 'NONE',  ( 1.396592535537260442E-15, 2.048590067269288075E-16, 0.4000000000000020206 ) ) ;
#131 = ADVANCED_BREP_SHAPE_REPRESENTATION ( '341840', ( #88, #178, #231 ), #169 ) ;
#132 = FACE_OUTER_BOUND ( 'NONE', #209, .T. ) ;
#133 = APPROVAL_PERSON_ORGANIZATION ( #106, #115, #229 ) ;
#134 = CARTESIAN_POINT ( 'NONE',  ( 0.0000000000000000000, 0.0000000000000000000, 0.0000000000000000000 ) ) ;
#135 = CARTESIAN_POINT ( 'NONE',  ( 0.0000000000000000000, 0.0000000000000000000, 0.0000000000000000000 ) ) ;
#136 = VERTEX_POINT ( 'NONE', #204 ) ;
#137 = FACE_OUTER_BOUND ( 'NONE', #118, .T. ) ;
#138 = DIRECTION ( 'NONE',  ( -3.491481338843133355E-15, 1.030643345817079849E-16, -1.000000000000000000 ) ) ;
#139 = PRODUCT ( '341840', '341840', '', ( #61 ) ) ;
#140 = COORDINATED_UNIVERSAL_TIME_OFFSET ( 1, 0, .AHEAD. ) ;
#141 = DIRECTION ( 'NONE',  ( -1.788153497702520628E-30, 1.000000000000000000, -5.121475168173194796E-16 ) ) ;
#142 = FACE_OUTER_BOUND ( 'NONE', #83, .T. ) ;
#143 = AXIS2_PLACEMENT_3D ( 'NONE', #109, #114, #205 ) ;
#144 = ORIENTED_EDGE ( 'NONE', *, *, #37, .T. ) ;
#145 = ADVANCED_FACE ( 'NONE', ( #142 ), #119, .T. ) ;
#146 = SECURITY_CLASSIFICATION ( '', '', #98 ) ;
#147 = VERTEX_POINT ( 'NONE', #225 ) ;
#148 = FACE_OUTER_BOUND ( 'NONE', #214, .T. ) ;
#149 = DIRECTION ( 'NONE',  ( 3.598472008923184252E-31, 1.000000000000000000, 1.030643345817079849E-16 ) ) ;
#150 = DATE_TIME_ROLE ( 'classification_date' ) ;
#151 = PERSON_AND_ORGANIZATION_ROLE ( 'creator' ) ;
#152 = ORIENTED_EDGE ( 'NONE', *, *, #50, .F. ) ;
#153 = APPROVAL_ROLE ( '' ) ;
#154 = CARTESIAN_POINT ( 'NONE',  ( -3.329595361056549710E-30, 3.724059892324148802, -9.536340131663933500E-16 ) ) ;
#155 = APPROVAL_STATUS ( 'not_yet_approved' ) ;
#156 = APPROVAL_DATE_TIME ( #193, #166 ) ;
#157 = AXIS2_PLACEMENT_3D ( 'NONE', #51, #127, #108 ) ;
#158 = PLANE ( 'NONE',  #243 ) ;
#159 = DATE_AND_TIME ( #102, #239 ) ;
#160 = DIRECTION ( 'NONE',  ( -3.491481338843133355E-15, -5.121475168173194796E-16, -1.000000000000000000 ) ) ;
#161 = FACE_OUTER_BOUND ( 'NONE', #216, .T. ) ;
#162 = PERSON_AND_ORGANIZATION ( #170, #129 ) ;
#163 = ORIENTED_EDGE ( 'NONE', *, *, #186, .F. ) ;
#164 = DIRECTION ( 'NONE',  ( 0.0000000000000000000, 1.000000000000000000, 0.0000000000000000000 ) ) ;
#165 = CC_DESIGN_SECURITY_CLASSIFICATION ( #146, ( #38 ) ) ;
#166 = APPROVAL ( #155, 'UNSPECIFIED' ) ;
#167 = CARTESIAN_POINT ( 'NONE',  ( 6.281823795492845674E-14, 2.999999999999988010, 17.99185842870425844 ) ) ;
#168 = EDGE_LOOP ( 'NONE', ( #110 ) ) ;
#169 =( GEOMETRIC_REPRESENTATION_CONTEXT ( 3 ) GLOBAL_UNCERTAINTY_ASSIGNED_CONTEXT ( ( #74 ) ) GLOBAL_UNIT_ASSIGNED_CONTEXT ( ( #45, #85, #123 ) ) REPRESENTATION_CONTEXT ( 'NONE', 'WORKASPACE' ) );
#170 = PERSON ( 'UNSPECIFIED', 'UNSPECIFIED', 'UNSPECIFIED', ('UNSPECIFIED'), ('UNSPECIFIED'), ('UNSPECIFIED') ) ;
#171 = COORDINATED_UNIVERSAL_TIME_OFFSET ( 1, 0, .AHEAD. ) ;
#172 = CC_DESIGN_APPROVAL ( #120, ( #146 ) ) ;
#173 = PERSON_AND_ORGANIZATION ( #170, #129 ) ;
#174 = EDGE_LOOP ( 'NONE', ( #54 ) ) ;
#175 = ORIENTED_EDGE ( 'NONE', *, *, #58, .T. ) ;
#176 = LOCAL_TIME ( 7, 52, 59.00000000000000000, #140 ) ;
#177 = APPLICATION_PROTOCOL_DEFINITION ( 'international standard', 'config_control_design', 1994, #105 ) ;
#178 = MANIFOLD_SOLID_BREP ( 'Corps-Déplacer/Copier1[2]', #180 ) ;
#179 = CARTESIAN_POINT ( 'NONE',  ( 5.704294892063839193E-14, -1.683839322776369221E-15, 16.33774990747594202 ) ) ;
#180 = CLOSED_SHELL ( 'NONE', ( #237, #210, #181, #234 ) ) ;
#181 = ADVANCED_FACE ( 'NONE', ( #189, #30 ), #112, .T. ) ;
#182 = AXIS2_PLACEMENT_3D ( 'NONE', #224, #138, #39 ) ;
#183 = CARTESIAN_POINT ( 'NONE',  ( 0.0000000000000000000, 3.724059892324148802, 0.0000000000000000000 ) ) ;
#184 = APPLICATION_CONTEXT ( 'configuration controlled 3d designs of mechanical parts and assemblies' ) ;
#185 = LOCAL_TIME ( 7, 52, 59.00000000000000000, #171 ) ;
#186 = EDGE_CURVE ( 'NONE', #136, #136, #192, .T. ) ;
#187 = DIRECTION ( 'NONE',  ( 0.0000000000000000000, 0.0000000000000000000, 1.000000000000000000 ) ) ;
#188 = CC_DESIGN_PERSON_AND_ORGANIZATION_ASSIGNMENT ( #173, #82, ( #38 ) ) ;
#189 = FACE_OUTER_BOUND ( 'NONE', #11, .T. ) ;
#190 = EDGE_LOOP ( 'NONE', ( #175 ) ) ;
#191 = DATE_AND_TIME ( #195, #176 ) ;
#192 = CIRCLE ( 'NONE', #94, 2.399999999999996358 ) ;
#193 = DATE_AND_TIME ( #208, #185 ) ;
#194 = EDGE_LOOP ( 'NONE', ( #152 ) ) ;
#195 = CALENDAR_DATE ( 2021, 26, 11 ) ;
#196 = CARTESIAN_POINT ( 'NONE',  ( 6.659190722113099420E-30, 9.768025835914067215E-31, 1.907268026332786700E-15 ) ) ;
#197 = DIRECTION ( 'NONE',  ( 0.0000000000000000000, 1.000000000000000000, 0.0000000000000000000 ) ) ;
#198 = DIRECTION ( 'NONE',  ( -1.788153497702520628E-30, 1.000000000000000000, -5.121475168173193810E-16 ) ) ;
#199 = FACE_OUTER_BOUND ( 'NONE', #190, .T. ) ;
#200 = AXIS2_PLACEMENT_3D ( 'NONE', #46, #122, #21 ) ;
#201 = DIRECTION ( 'NONE',  ( -3.491481338843133355E-15, 1.030643345817079849E-16, -1.000000000000000000 ) ) ;
#202 = FACE_OUTER_BOUND ( 'NONE', #194, .T. ) ;
#203 = DIRECTION ( 'NONE',  ( 1.000000000000000000, 0.0000000000000000000, 0.0000000000000000000 ) ) ;
#204 = CARTESIAN_POINT ( 'NONE',  ( 3.526396152231565067E-13, 2.399999999999985700, 101.0000000000000000 ) ) ;
#205 = DIRECTION ( 'NONE',  ( 0.0000000000000000000, 1.000000000000000000, 0.0000000000000000000 ) ) ;
#206 = CIRCLE ( 'NONE', #33, 3.724059892324148802 ) ;
#207 = LOCAL_TIME ( 7, 52, 59.00000000000000000, #126 ) ;
#208 = CALENDAR_DATE ( 2021, 26, 11 ) ;
#209 = EDGE_LOOP ( 'NONE', ( #220 ) ) ;
#210 = ADVANCED_FACE ( 'NONE', ( #199, #202 ), #75, .T. ) ;
#211 = DIRECTION ( 'NONE',  ( -3.598472008923184252E-31, -1.000000000000000000, -1.030643345817079849E-16 ) ) ;
#212 = CARTESIAN_POINT ( 'NONE',  ( 3.526396152231565067E-13, -1.040949779275250653E-14, 101.0000000000000000 ) ) ;
#213 = PLANE ( 'NONE',  #200 ) ;
#214 = EDGE_LOOP ( 'NONE', ( #2 ) ) ;
#215 = PERSON_AND_ORGANIZATION_ROLE ( 'creator' ) ;
#216 = EDGE_LOOP ( 'NONE', ( #70 ) ) ;
#217 = CC_DESIGN_APPROVAL ( #115, ( #52 ) ) ;
#218 = CC_DESIGN_DATE_AND_TIME_ASSIGNMENT ( #191, #150, ( #146 ) ) ;
#219 = CC_DESIGN_APPROVAL ( #166, ( #38 ) ) ;
#220 = ORIENTED_EDGE ( 'NONE', *, *, #3, .T. ) ;
#221 = CONICAL_SURFACE ( 'NONE', #59, 3.955000000000000071, 0.5235987755982938197 ) ;
#222 = CIRCLE ( 'NONE', #42, 2.999999999999996003 ) ;
#223 = FACE_OUTER_BOUND ( 'NONE', #174, .T. ) ;
#224 = CARTESIAN_POINT ( 'NONE',  ( 0.0000000000000000000, 0.0000000000000000000, 0.0000000000000000000 ) ) ;
#225 = CARTESIAN_POINT ( 'NONE',  ( 3.505447264198505636E-13, 2.999999999999985789, 100.4000000000000057 ) ) ;
#226 = ORIENTED_EDGE ( 'NONE', *, *, #37, .F. ) ;
#227 = CIRCLE ( 'NONE', #143, 2.999999999999989786 ) ;
#228 = CONICAL_SURFACE ( 'NONE', #117, 2.999999999999996003, 0.7853981633974453924 ) ;
#229 = APPROVAL_ROLE ( '' ) ;
#230 = DIRECTION ( 'NONE',  ( -3.491481338843133355E-15, -5.121475168173194796E-16, -1.000000000000000000 ) ) ;
#231 = AXIS2_PLACEMENT_3D ( 'NONE', #135, #187, #203 ) ;
#232 = CIRCLE ( 'NONE', #67, 3.955000000000000071 ) ;
#233 = PERSON_AND_ORGANIZATION_ROLE ( 'design_owner' ) ;
#234 = ADVANCED_FACE ( 'NONE', ( #132 ), #158, .T. ) ;
#235 = APPROVAL_DATE_TIME ( #159, #115 ) ;
#236 = AXIS2_PLACEMENT_3D ( 'NONE', #212, #7, #211 ) ;
#237 = ADVANCED_FACE ( 'NONE', ( #161 ), #213, .T. ) ;
#238 = CARTESIAN_POINT ( 'NONE',  ( 3.505447264198505636E-13, -1.034765919200348261E-14, 100.4000000000000057 ) ) ;
#239 = LOCAL_TIME ( 7, 52, 59.00000000000000000, #9 ) ;
#240 = CC_DESIGN_PERSON_AND_ORGANIZATION_ASSIGNMENT ( #26, #233, ( #139 ) ) ;
#241 = VERTEX_POINT ( 'NONE', #1 ) ;
#242 = DESIGN_CONTEXT ( 'detailed design', #105, 'design' ) ;
#243 = AXIS2_PLACEMENT_3D ( 'NONE', #154, #230, #141 ) ;
ENDSEC;
END-ISO-10303-21;
