ISO-10303-21;
HEADER;
FILE_DESCRIPTION (( 'STEP AP203' ),
    '1' );
FILE_NAME ('341830.step',
    '2021-11-26T06:52:58',
    ( '' ),
    ( '' ),
    'SwSTEP 2.0',
    'SolidWorks 2019',
    '' );
FILE_SCHEMA (( 'CONFIG_CONTROL_DESIGN' ));
ENDSEC;

DATA;
#1 =( LENGTH_UNIT ( ) NAMED_UNIT ( * ) SI_UNIT ( .MILLI., .METRE. ) );
#2 = DIRECTION ( 'NONE',  ( -1.774215766561922980E-30, 1.000000000000000000, -5.081555919613740201E-16 ) ) ;
#3 = ORIENTED_EDGE ( 'NONE', *, *, #65, .F. ) ;
#4 = ORIENTED_EDGE ( 'NONE', *, *, #225, .F. ) ;
#5 = DIRECTION ( 'NONE',  ( 0.0000000000000000000, 1.000000000000000000, 0.0000000000000000000 ) ) ;
#6 = UNCERTAINTY_MEASURE_WITH_UNIT (LENGTH_MEASURE( 1.000000000000000082E-05 ), #1, 'distance_accuracy_value', 'NONE');
#7 = CIRCLE ( 'NONE', #186, 3.904999999999998028 ) ;
#8 = ORIENTED_EDGE ( 'NONE', *, *, #225, .T. ) ;
#9 = PLANE ( 'NONE',  #101 ) ;
#10 = FACE_OUTER_BOUND ( 'NONE', #41, .T. ) ;
#11 = APPROVAL ( #103, 'UNSPECIFIED' ) ;
#12 = AXIS2_PLACEMENT_3D ( 'NONE', #20, #120, #214 ) ;
#13 = CC_DESIGN_DATE_AND_TIME_ASSIGNMENT ( #164, #195, ( #196 ) ) ;
#14 = FACE_BOUND ( 'NONE', #26, .T. ) ;
#15 = CIRCLE ( 'NONE', #210, 2.999999999999989786 ) ;
#16 = APPLICATION_PROTOCOL_DEFINITION ( 'international standard', 'config_control_design', 1994, #94 ) ;
#17 = CARTESIAN_POINT ( 'NONE',  ( 6.281823795492844412E-14, 2.999999999999988010, 17.99185842870425489 ) ) ;
#18 = EDGE_CURVE ( 'NONE', #148, #148, #230, .T. ) ;
#19 = ORIENTED_EDGE ( 'NONE', *, *, #18, .F. ) ;
#20 = CARTESIAN_POINT ( 'NONE',  ( 5.734532007426614236E-14, -1.692764955973559289E-15, 16.42435244785438897 ) ) ;
#21 = DIRECTION ( 'NONE',  ( 0.0000000000000000000, 1.000000000000000000, 0.0000000000000000000 ) ) ;
#22 = CC_DESIGN_PERSON_AND_ORGANIZATION_ASSIGNMENT ( #37, #112, ( #196 ) ) ;
#23 = PLANE ( 'NONE',  #134 ) ;
#24 = CC_DESIGN_APPROVAL ( #187, ( #228 ) ) ;
#25 = ORIENTED_EDGE ( 'NONE', *, *, #204, .F. ) ;
#26 = EDGE_LOOP ( 'NONE', ( #42 ) ) ;
#27 = ADVANCED_FACE ( 'NONE', ( #73 ), #23, .T. ) ;
#28 = CIRCLE ( 'NONE', #61, 3.904999999999989146 ) ;
#29 = CC_DESIGN_PERSON_AND_ORGANIZATION_ASSIGNMENT ( #109, #155, ( #124 ) ) ;
#30 = FACE_OUTER_BOUND ( 'NONE', #158, .T. ) ;
#31 = LOCAL_TIME ( 7, 52, 58.00000000000000000, #68 ) ;
#32 = APPLICATION_CONTEXT ( 'configuration controlled 3d designs of mechanical parts and assemblies' ) ;
#33 = DIRECTION ( 'NONE',  ( -3.491481338843133355E-15, 1.030643345817079849E-16, -1.000000000000000000 ) ) ;
#34 = AXIS2_PLACEMENT_3D ( 'NONE', #49, #127, #129 ) ;
#35 = CARTESIAN_POINT ( 'NONE',  ( 0.0000000000000000000, 3.674059892324148091, 0.0000000000000000000 ) ) ;
#36 = AXIS2_PLACEMENT_3D ( 'NONE', #184, #181, #240 ) ;
#37 = PERSON_AND_ORGANIZATION ( #128, #197 ) ;
#38 = ORIENTED_EDGE ( 'NONE', *, *, #143, .T. ) ;
#39 = DIRECTION ( 'NONE',  ( 1.774215766561922980E-30, -1.000000000000000000, 5.081555919613740201E-16 ) ) ;
#40 = FACE_BOUND ( 'NONE', #58, .T. ) ;
#41 = EDGE_LOOP ( 'NONE', ( #98 ) ) ;
#42 = ORIENTED_EDGE ( 'NONE', *, *, #96, .F. ) ;
#43 = DIRECTION ( 'NONE',  ( -3.491481338843133355E-15, 1.030643345817079849E-16, -1.000000000000000000 ) ) ;
#44 = AXIS2_PLACEMENT_3D ( 'NONE', #205, #63, #147 ) ;
#45 = AXIS2_PLACEMENT_3D ( 'NONE', #161, #78, #235 ) ;
#46 = VERTEX_POINT ( 'NONE', #106 ) ;
#47 = CYLINDRICAL_SURFACE ( 'NONE', #87, 3.904999999999993587 ) ;
#48 = SECURITY_CLASSIFICATION_LEVEL ( 'unclassified' ) ;
#49 = CARTESIAN_POINT ( 'NONE',  ( 0.0000000000000000000, 0.0000000000000000000, 0.0000000000000000000 ) ) ;
#50 = CIRCLE ( 'NONE', #45, 3.674059892324148091 ) ;
#51 = PLANE ( 'NONE',  #36 ) ;
#52 = VERTEX_POINT ( 'NONE', #185 ) ;
#53 = DIRECTION ( 'NONE',  ( -1.774215766561922980E-30, 1.000000000000000000, -5.081555919613740201E-16 ) ) ;
#54 = ADVANCED_FACE ( 'NONE', ( #118 ), #9, .T. ) ;
#55 = COORDINATED_UNIVERSAL_TIME_OFFSET ( 1, 0, .AHEAD. ) ;
#56 = EDGE_LOOP ( 'NONE', ( #170 ) ) ;
#57 = APPROVAL_ROLE ( '' ) ;
#58 = EDGE_LOOP ( 'NONE', ( #8 ) ) ;
#59 = FACE_OUTER_BOUND ( 'NONE', #232, .T. ) ;
#60 = CARTESIAN_POINT ( 'NONE',  ( 1.396592535537260245E-15, 2.032622367845506040E-16, 0.4000000000000019651 ) ) ;
#61 = AXIS2_PLACEMENT_3D ( 'NONE', #74, #135, #121 ) ;
#62 = APPROVAL ( #224, 'UNSPECIFIED' ) ;
#63 = DIRECTION ( 'NONE',  ( 3.491481338843133355E-15, 5.081555919613740201E-16, 1.000000000000000000 ) ) ;
#64 =( NAMED_UNIT ( * ) SI_UNIT ( $, .STERADIAN. ) SOLID_ANGLE_UNIT ( ) );
#65 = EDGE_CURVE ( 'NONE', #46, #46, #165, .T. ) ;
#66 = LOCAL_TIME ( 7, 52, 58.00000000000000000, #194 ) ;
#67 = APPLICATION_PROTOCOL_DEFINITION ( 'international standard', 'config_control_design', 1994, #32 ) ;
#68 = COORDINATED_UNIVERSAL_TIME_OFFSET ( 1, 0, .AHEAD. ) ;
#69 = CC_DESIGN_PERSON_AND_ORGANIZATION_ASSIGNMENT ( #241, #168, ( #182 ) ) ;
#70 = PERSON_AND_ORGANIZATION_ROLE ( 'design_supplier' ) ;
#71 = EDGE_LOOP ( 'NONE', ( #25 ) ) ;
#72 = CARTESIAN_POINT ( 'NONE',  ( 3.505447264198505636E-13, -1.034765919200348261E-14, 100.4000000000000057 ) ) ;
#73 = FACE_OUTER_BOUND ( 'NONE', #122, .T. ) ;
#74 = CARTESIAN_POINT ( 'NONE',  ( 5.734532007426615498E-14, 8.346126540721691399E-15, 16.42435244785439252 ) ) ;
#75 = DIRECTION ( 'NONE',  ( -3.491481338843133355E-15, 1.030643345817079849E-16, -1.000000000000000000 ) ) ;
#76 = FACE_OUTER_BOUND ( 'NONE', #71, .T. ) ;
#77 = EDGE_CURVE ( 'NONE', #52, #52, #28, .T. ) ;
#78 = DIRECTION ( 'NONE',  ( -3.491481338843133355E-15, -5.081555919613740201E-16, -1.000000000000000000 ) ) ;
#79 = AXIS2_PLACEMENT_3D ( 'NONE', #206, #43, #212 ) ;
#80 = CC_DESIGN_APPROVAL ( #62, ( #196 ) ) ;
#81 = DIRECTION ( 'NONE',  ( -3.491481338843133355E-15, 1.030643345817079849E-16, -1.000000000000000000 ) ) ;
#82 = CLOSED_SHELL ( 'NONE', ( #234, #144, #218, #166, #54 ) ) ;
#83 = DATE_AND_TIME ( #226, #66 ) ;
#84 = MECHANICAL_CONTEXT ( 'NONE', #94, 'mechanical' ) ;
#85 = CALENDAR_DATE ( 2021, 26, 11 ) ;
#86 =( NAMED_UNIT ( * ) PLANE_ANGLE_UNIT ( ) SI_UNIT ( $, .RADIAN. ) );
#87 = AXIS2_PLACEMENT_3D ( 'NONE', #140, #222, #2 ) ;
#88 = CARTESIAN_POINT ( 'NONE',  ( 6.281823795492844412E-14, -1.854318916842698141E-15, 17.99185842870425489 ) ) ;
#89 = APPROVAL_DATE_TIME ( #83, #11 ) ;
#90 = FACE_OUTER_BOUND ( 'NONE', #114, .T. ) ;
#91 = ORIENTED_EDGE ( 'NONE', *, *, #143, .F. ) ;
#92 = MANIFOLD_SOLID_BREP ( 'Corps-Déplacer/Copier1[1]', #82 ) ;
#93 = DIRECTION ( 'NONE',  ( -3.491481338843133355E-15, 1.030643345817079849E-16, -1.000000000000000000 ) ) ;
#94 = APPLICATION_CONTEXT ( 'configuration controlled 3d designs of mechanical parts and assemblies' ) ;
#95 = ORIENTED_EDGE ( 'NONE', *, *, #77, .F. ) ;
#96 = EDGE_CURVE ( 'NONE', #125, #125, #50, .T. ) ;
#97 = FACE_BOUND ( 'NONE', #188, .T. ) ;
#98 = ORIENTED_EDGE ( 'NONE', *, *, #65, .T. ) ;
#99 = CALENDAR_DATE ( 2021, 26, 11 ) ;
#100 = DIRECTION ( 'NONE',  ( -1.775505198410768957E-30, 1.000000000000000000, -5.136425144937732064E-16 ) ) ;
#101 = AXIS2_PLACEMENT_3D ( 'NONE', #191, #93, #173 ) ;
#102 = DIRECTION ( 'NONE',  ( 0.0000000000000000000, 1.000000000000000000, 0.0000000000000000000 ) ) ;
#103 = APPROVAL_STATUS ( 'not_yet_approved' ) ;
#104 = CARTESIAN_POINT ( 'NONE',  ( 5.734532007426614236E-14, 3.904999999999997584, 16.42435244785438897 ) ) ;
#105 = PERSON_AND_ORGANIZATION_ROLE ( 'classification_officer' ) ;
#106 = CARTESIAN_POINT ( 'NONE',  ( 3.505447264198505636E-13, 2.999999999999985789, 100.4000000000000057 ) ) ;
#107 = COORDINATED_UNIVERSAL_TIME_OFFSET ( 1, 0, .AHEAD. ) ;
#108 = CARTESIAN_POINT ( 'NONE',  ( 0.0000000000000000000, 0.0000000000000000000, 0.0000000000000000000 ) ) ;
#109 = PERSON_AND_ORGANIZATION ( #128, #197 ) ;
#110 = VERTEX_POINT ( 'NONE', #17 ) ;
#111 = AXIS2_PLACEMENT_3D ( 'NONE', #237, #202, #53 ) ;
#112 = PERSON_AND_ORGANIZATION_ROLE ( 'creator' ) ;
#113 = CC_DESIGN_SECURITY_CLASSIFICATION ( #228, ( #124 ) ) ;
#114 = EDGE_LOOP ( 'NONE', ( #3 ) ) ;
#115 = CC_DESIGN_PERSON_AND_ORGANIZATION_ASSIGNMENT ( #126, #105, ( #228 ) ) ;
#116 = APPROVAL_STATUS ( 'not_yet_approved' ) ;
#117 = EDGE_LOOP ( 'NONE', ( #19 ) ) ;
#118 = FACE_OUTER_BOUND ( 'NONE', #162, .T. ) ;
#119 = ADVANCED_FACE ( 'NONE', ( #59 ), #215, .T. ) ;
#120 = DIRECTION ( 'NONE',  ( -3.491481338843133355E-15, 1.030643345817079849E-16, -1.000000000000000000 ) ) ;
#121 = DIRECTION ( 'NONE',  ( -3.156453686063596263E-30, 1.000000000000000000, -8.884627277730150433E-16 ) ) ;
#122 = EDGE_LOOP ( 'NONE', ( #95 ) ) ;
#123 = CLOSED_SHELL ( 'NONE', ( #27, #163, #242, #119 ) ) ;
#124 = PRODUCT_DEFINITION_FORMATION_WITH_SPECIFIED_SOURCE ( 'ANY', '', #182, .NOT_KNOWN. ) ;
#125 = VERTEX_POINT ( 'NONE', #35 ) ;
#126 = PERSON_AND_ORGANIZATION ( #128, #197 ) ;
#127 = DIRECTION ( 'NONE',  ( 0.0000000000000000000, 0.0000000000000000000, 1.000000000000000000 ) ) ;
#128 = PERSON ( 'UNSPECIFIED', 'UNSPECIFIED', 'UNSPECIFIED', ('UNSPECIFIED'), ('UNSPECIFIED'), ('UNSPECIFIED') ) ;
#129 = DIRECTION ( 'NONE',  ( 1.000000000000000000, 0.0000000000000000000, 0.0000000000000000000 ) ) ;
#130 = VERTEX_POINT ( 'NONE', #150 ) ;
#131 = CALENDAR_DATE ( 2021, 26, 11 ) ;
#132 = CONICAL_SURFACE ( 'NONE', #44, 3.674059892324148091, 0.5235987755982978165 ) ;
#133 = DIRECTION ( 'NONE',  ( 0.0000000000000000000, 1.000000000000000000, 0.0000000000000000000 ) ) ;
#134 = AXIS2_PLACEMENT_3D ( 'NONE', #139, #211, #39 ) ;
#135 = DIRECTION ( 'NONE',  ( -3.491481338843133355E-15, -5.081555919613740201E-16, -1.000000000000000000 ) ) ;
#136 = SHAPE_DEFINITION_REPRESENTATION ( #146, #141 ) ;
#137 = CARTESIAN_POINT ( 'NONE',  ( 3.505447264198505636E-13, -1.034765919200348261E-14, 100.4000000000000057 ) ) ;
#138 = LOCAL_TIME ( 7, 52, 58.00000000000000000, #193 ) ;
#139 = CARTESIAN_POINT ( 'NONE',  ( 5.734532007426615498E-14, 8.346126540721691399E-15, 16.42435244785439252 ) ) ;
#140 = CARTESIAN_POINT ( 'NONE',  ( 0.0000000000000000000, 0.0000000000000000000, 0.0000000000000000000 ) ) ;
#141 = ADVANCED_BREP_SHAPE_REPRESENTATION ( '341830', ( #92, #178, #34 ), #151 ) ;
#142 = AXIS2_PLACEMENT_3D ( 'NONE', #137, #75, #5 ) ;
#143 = EDGE_CURVE ( 'NONE', #130, #130, #189, .T. ) ;
#144 = ADVANCED_FACE ( 'NONE', ( #97, #90 ), #199, .T. ) ;
#145 = AXIS2_PLACEMENT_3D ( 'NONE', #108, #33, #153 ) ;
#146 = PRODUCT_DEFINITION_SHAPE ( 'NONE', 'NONE',  #196 ) ;
#147 = DIRECTION ( 'NONE',  ( 1.774215766561922980E-30, -1.000000000000000000, 5.081555919613740201E-16 ) ) ;
#148 = VERTEX_POINT ( 'NONE', #104 ) ;
#149 = PERSON_AND_ORGANIZATION ( #128, #197 ) ;
#150 = CARTESIAN_POINT ( 'NONE',  ( 3.526396152231565067E-13, 2.399999999999985700, 101.0000000000000000 ) ) ;
#151 =( GEOMETRIC_REPRESENTATION_CONTEXT ( 3 ) GLOBAL_UNCERTAINTY_ASSIGNED_CONTEXT ( ( #6 ) ) GLOBAL_UNIT_ASSIGNED_CONTEXT ( ( #1, #86, #64 ) ) REPRESENTATION_CONTEXT ( 'NONE', 'WORKASPACE' ) );
#152 = LOCAL_TIME ( 7, 52, 58.00000000000000000, #107 ) ;
#153 = DIRECTION ( 'NONE',  ( 3.598472008923184252E-31, 1.000000000000000000, 1.030643345817079726E-16 ) ) ;
#154 = APPROVAL_PERSON_ORGANIZATION ( #231, #187, #57 ) ;
#155 = PERSON_AND_ORGANIZATION_ROLE ( 'creator' ) ;
#156 = ORIENTED_EDGE ( 'NONE', *, *, #204, .T. ) ;
#157 = DATE_TIME_ROLE ( 'classification_date' ) ;
#158 = EDGE_LOOP ( 'NONE', ( #4 ) ) ;
#159 = ORIENTED_EDGE ( 'NONE', *, *, #18, .T. ) ;
#160 = APPROVAL_DATE_TIME ( #174, #187 ) ;
#161 = CARTESIAN_POINT ( 'NONE',  ( 6.518574988254304759E-30, 9.487234816493448453E-31, 1.866994079485519558E-15 ) ) ;
#162 = EDGE_LOOP ( 'NONE', ( #159 ) ) ;
#163 = ADVANCED_FACE ( 'NONE', ( #175, #76 ), #47, .T. ) ;
#164 = DATE_AND_TIME ( #131, #236 ) ;
#165 = CIRCLE ( 'NONE', #142, 2.999999999999996003 ) ;
#166 = ADVANCED_FACE ( 'NONE', ( #40, #209 ), #169, .T. ) ;
#167 = CYLINDRICAL_SURFACE ( 'NONE', #145, 2.999999999999993339 ) ;
#168 = PERSON_AND_ORGANIZATION_ROLE ( 'design_owner' ) ;
#169 = CONICAL_SURFACE ( 'NONE', #12, 3.904999999999999361, 0.5235987755982943748 ) ;
#170 = ORIENTED_EDGE ( 'NONE', *, *, #77, .T. ) ;
#171 = CC_DESIGN_PERSON_AND_ORGANIZATION_ASSIGNMENT ( #207, #70, ( #124 ) ) ;
#172 = EDGE_LOOP ( 'NONE', ( #91 ) ) ;
#173 = DIRECTION ( 'NONE',  ( 3.598472008923184252E-31, 1.000000000000000000, 1.030643345817079849E-16 ) ) ;
#174 = DATE_AND_TIME ( #99, #138 ) ;
#175 = FACE_OUTER_BOUND ( 'NONE', #56, .T. ) ;
#176 = DATE_AND_TIME ( #85, #152 ) ;
#177 = DIRECTION ( 'NONE',  ( -3.491481338843133355E-15, 1.030643345817079849E-16, -1.000000000000000000 ) ) ;
#178 = MANIFOLD_SOLID_BREP ( 'Corps-Déplacer/Copier1[2]', #123 ) ;
#179 = PERSON_AND_ORGANIZATION ( #128, #197 ) ;
#180 = AXIS2_PLACEMENT_3D ( 'NONE', #233, #177, #133 ) ;
#181 = DIRECTION ( 'NONE',  ( 3.491481338843133355E-15, -1.030643345817079849E-16, 1.000000000000000000 ) ) ;
#182 = PRODUCT ( '341830', '341830', '', ( #84 ) ) ;
#183 = APPROVAL_PERSON_ORGANIZATION ( #149, #62, #243 ) ;
#184 = CARTESIAN_POINT ( 'NONE',  ( 3.526396152231565067E-13, -1.040949779275250653E-14, 101.0000000000000000 ) ) ;
#185 = CARTESIAN_POINT ( 'NONE',  ( 5.734532007426614236E-14, 3.904999999999997584, 16.42435244785438897 ) ) ;
#186 = AXIS2_PLACEMENT_3D ( 'NONE', #60, #216, #100 ) ;
#187 = APPROVAL ( #116, 'UNSPECIFIED' ) ;
#188 = EDGE_LOOP ( 'NONE', ( #38 ) ) ;
#189 = CIRCLE ( 'NONE', #79, 2.399999999999996358 ) ;
#190 = DIRECTION ( 'NONE',  ( -3.491481338843133355E-15, 1.030643345817079849E-16, -1.000000000000000000 ) ) ;
#191 = CARTESIAN_POINT ( 'NONE',  ( 5.734532007426615498E-14, 3.904999999999997584, 16.42435244785439252 ) ) ;
#192 = EDGE_LOOP ( 'NONE', ( #156 ) ) ;
#193 = COORDINATED_UNIVERSAL_TIME_OFFSET ( 1, 0, .AHEAD. ) ;
#194 = COORDINATED_UNIVERSAL_TIME_OFFSET ( 1, 0, .AHEAD. ) ;
#195 = DATE_TIME_ROLE ( 'creation_date' ) ;
#196 = PRODUCT_DEFINITION ( 'UNKNOWN', '', #124, #200 ) ;
#197 = ORGANIZATION ( 'UNSPECIFIED', 'UNSPECIFIED', '' ) ;
#198 = APPROVAL_ROLE ( '' ) ;
#199 = CONICAL_SURFACE ( 'NONE', #223, 2.999999999999996003, 0.7853981633974453924 ) ;
#200 = DESIGN_CONTEXT ( 'detailed design', #32, 'design' ) ;
#201 = CARTESIAN_POINT ( 'NONE',  ( 1.396592535537253342E-15, 3.904999999999998028, 0.3999999999999999667 ) ) ;
#202 = DIRECTION ( 'NONE',  ( -3.491481338843133355E-15, -5.081555919613740201E-16, -1.000000000000000000 ) ) ;
#203 = CC_DESIGN_APPROVAL ( #11, ( #124 ) ) ;
#204 = EDGE_CURVE ( 'NONE', #219, #219, #7, .T. ) ;
#205 = CARTESIAN_POINT ( 'NONE',  ( 6.518574988254304759E-30, 9.487234816493448453E-31, 1.866994079485519558E-15 ) ) ;
#206 = CARTESIAN_POINT ( 'NONE',  ( 3.526396152231565067E-13, -1.040949779275250653E-14, 101.0000000000000000 ) ) ;
#207 = PERSON_AND_ORGANIZATION ( #128, #197 ) ;
#208 = APPROVAL_DATE_TIME ( #229, #62 ) ;
#209 = FACE_OUTER_BOUND ( 'NONE', #117, .T. ) ;
#210 = AXIS2_PLACEMENT_3D ( 'NONE', #88, #81, #102 ) ;
#211 = DIRECTION ( 'NONE',  ( 3.491481338843133355E-15, 5.081555919613740201E-16, 1.000000000000000000 ) ) ;
#212 = DIRECTION ( 'NONE',  ( 0.0000000000000000000, 1.000000000000000000, 0.0000000000000000000 ) ) ;
#213 = CC_DESIGN_DATE_AND_TIME_ASSIGNMENT ( #176, #157, ( #228 ) ) ;
#214 = DIRECTION ( 'NONE',  ( 0.0000000000000000000, 1.000000000000000000, 0.0000000000000000000 ) ) ;
#215 = PLANE ( 'NONE',  #111 ) ;
#216 = DIRECTION ( 'NONE',  ( -3.491481338843133355E-15, -5.081555919613740201E-16, -1.000000000000000000 ) ) ;
#217 = ORIENTED_EDGE ( 'NONE', *, *, #96, .T. ) ;
#218 = ADVANCED_FACE ( 'NONE', ( #10, #30 ), #167, .T. ) ;
#219 = VERTEX_POINT ( 'NONE', #201 ) ;
#220 = PRODUCT_RELATED_PRODUCT_CATEGORY ( 'detail', '', ( #182 ) ) ;
#221 = FACE_OUTER_BOUND ( 'NONE', #192, .T. ) ;
#222 = DIRECTION ( 'NONE',  ( -3.491481338843133355E-15, -5.081555919613740201E-16, -1.000000000000000000 ) ) ;
#223 = AXIS2_PLACEMENT_3D ( 'NONE', #72, #190, #21 ) ;
#224 = APPROVAL_STATUS ( 'not_yet_approved' ) ;
#225 = EDGE_CURVE ( 'NONE', #110, #110, #15, .T. ) ;
#226 = CALENDAR_DATE ( 2021, 26, 11 ) ;
#227 = CALENDAR_DATE ( 2021, 26, 11 ) ;
#228 = SECURITY_CLASSIFICATION ( '', '', #48 ) ;
#229 = DATE_AND_TIME ( #227, #31 ) ;
#230 = CIRCLE ( 'NONE', #180, 3.904999999999999361 ) ;
#231 = PERSON_AND_ORGANIZATION ( #128, #197 ) ;
#232 = EDGE_LOOP ( 'NONE', ( #217 ) ) ;
#233 = CARTESIAN_POINT ( 'NONE',  ( 5.734532007426614236E-14, -1.692764955973559289E-15, 16.42435244785438897 ) ) ;
#234 = ADVANCED_FACE ( 'NONE', ( #239 ), #51, .T. ) ;
#235 = DIRECTION ( 'NONE',  ( -1.774215766561922980E-30, 1.000000000000000000, -5.081555919613740201E-16 ) ) ;
#236 = LOCAL_TIME ( 7, 52, 58.00000000000000000, #55 ) ;
#237 = CARTESIAN_POINT ( 'NONE',  ( -3.259287494127152380E-30, 3.674059892324148091, -9.334970397427597789E-16 ) ) ;
#238 = APPROVAL_PERSON_ORGANIZATION ( #179, #11, #198 ) ;
#239 = FACE_OUTER_BOUND ( 'NONE', #172, .T. ) ;
#240 = DIRECTION ( 'NONE',  ( -3.598472008923184252E-31, -1.000000000000000000, -1.030643345817079849E-16 ) ) ;
#241 = PERSON_AND_ORGANIZATION ( #128, #197 ) ;
#242 = ADVANCED_FACE ( 'NONE', ( #221, #14 ), #132, .T. ) ;
#243 = APPROVAL_ROLE ( '' ) ;
ENDSEC;
END-ISO-10303-21;
