ISO-10303-21;
HEADER;
FILE_DESCRIPTION (( 'STEP AP203' ),
    '1' );
FILE_NAME ('341820.step',
    '2021-11-26T06:52:58',
    ( '' ),
    ( '' ),
    'SwSTEP 2.0',
    'SolidWorks 2019',
    '' );
FILE_SCHEMA (( 'CONFIG_CONTROL_DESIGN' ));
ENDSEC;

DATA;
#1 = CARTESIAN_POINT ( 'NONE',  ( 3.526396152231565067E-13, 2.399999999999985700, 101.0000000000000000 ) ) ;
#2 = ADVANCED_FACE ( 'NONE', ( #130 ), #33, .T. ) ;
#3 = CONICAL_SURFACE ( 'NONE', #146, 3.624059892324148269, 0.5235987755982978165 ) ;
#4 = CC_DESIGN_SECURITY_CLASSIFICATION ( #90, ( #156 ) ) ;
#5 = APPROVAL_ROLE ( '' ) ;
#6 = DIRECTION ( 'NONE',  ( -3.491481338843133355E-15, -5.042055436454325195E-16, -1.000000000000000000 ) ) ;
#7 = DIRECTION ( 'NONE',  ( -3.491481338843133355E-15, 1.030643345817079849E-16, -1.000000000000000000 ) ) ;
#8 = DATE_AND_TIME ( #238, #169 ) ;
#9 = COORDINATED_UNIVERSAL_TIME_OFFSET ( 1, 0, .AHEAD. ) ;
#10 = ORIENTED_EDGE ( 'NONE', *, *, #171, .T. ) ;
#11 = DIRECTION ( 'NONE',  ( 1.000000000000000000, 0.0000000000000000000, 0.0000000000000000000 ) ) ;
#12 = ORIENTED_EDGE ( 'NONE', *, *, #241, .T. ) ;
#13 = DIRECTION ( 'NONE',  ( -1.760424246579285138E-30, 1.000000000000000000, -5.042055436454326181E-16 ) ) ;
#14 = MANIFOLD_SOLID_BREP ( 'Corps-Déplacer/Copier1[1]', #200 ) ;
#15 = MANIFOLD_SOLID_BREP ( 'Corps-Déplacer/Copier1[2]', #208 ) ;
#16 = DIRECTION ( 'NONE',  ( -3.491481338843133355E-15, 1.030643345817079849E-16, -1.000000000000000000 ) ) ;
#17 = AXIS2_PLACEMENT_3D ( 'NONE', #117, #214, #11 ) ;
#18 = PRODUCT_RELATED_PRODUCT_CATEGORY ( 'detail', '', ( #239 ) ) ;
#19 =( NAMED_UNIT ( * ) SI_UNIT ( $, .STERADIAN. ) SOLID_ANGLE_UNIT ( ) );
#20 = DIRECTION ( 'NONE',  ( 3.491481338843133355E-15, 5.042055436454325195E-16, 1.000000000000000000 ) ) ;
#21 = CONICAL_SURFACE ( 'NONE', #233, 3.854999999999999538, 0.5235987755982934866 ) ;
#22 = APPROVAL_STATUS ( 'not_yet_approved' ) ;
#23 = FACE_BOUND ( 'NONE', #201, .T. ) ;
#24 = COORDINATED_UNIVERSAL_TIME_OFFSET ( 1, 0, .AHEAD. ) ;
#25 = AXIS2_PLACEMENT_3D ( 'NONE', #56, #154, #192 ) ;
#26 = CARTESIAN_POINT ( 'NONE',  ( 6.379882905502942388E-30, 9.213202124199689317E-31, 1.827271088212905049E-15 ) ) ;
#27 = CC_DESIGN_PERSON_AND_ORGANIZATION_ASSIGNMENT ( #76, #121, ( #156 ) ) ;
#28 = EDGE_LOOP ( 'NONE', ( #127 ) ) ;
#29 = PERSON_AND_ORGANIZATION_ROLE ( 'design_supplier' ) ;
#30 = EDGE_LOOP ( 'NONE', ( #161 ) ) ;
#31 = CARTESIAN_POINT ( 'NONE',  ( 3.505447264198505636E-13, 2.999999999999985789, 100.4000000000000057 ) ) ;
#32 = EDGE_LOOP ( 'NONE', ( #107 ) ) ;
#33 = PLANE ( 'NONE',  #50 ) ;
#34 = CC_DESIGN_PERSON_AND_ORGANIZATION_ASSIGNMENT ( #75, #153, ( #231 ) ) ;
#35 = CARTESIAN_POINT ( 'NONE',  ( 3.505447264198505636E-13, -1.034765919200348261E-14, 100.4000000000000057 ) ) ;
#36 = CYLINDRICAL_SURFACE ( 'NONE', #126, 2.999999999999993339 ) ;
#37 = DIRECTION ( 'NONE',  ( -3.491481338843133355E-15, 1.030643345817079849E-16, -1.000000000000000000 ) ) ;
#38 = PERSON_AND_ORGANIZATION_ROLE ( 'design_owner' ) ;
#39 = ADVANCED_FACE ( 'NONE', ( #46, #217 ), #188, .T. ) ;
#40 = COORDINATED_UNIVERSAL_TIME_OFFSET ( 1, 0, .AHEAD. ) ;
#41 = CALENDAR_DATE ( 2021, 26, 11 ) ;
#42 = FACE_OUTER_BOUND ( 'NONE', #47, .T. ) ;
#43 = AXIS2_PLACEMENT_3D ( 'NONE', #48, #125, #101 ) ;
#44 = EDGE_LOOP ( 'NONE', ( #240 ) ) ;
#45 = PERSON_AND_ORGANIZATION ( #80, #187 ) ;
#46 = FACE_OUTER_BOUND ( 'NONE', #51, .T. ) ;
#47 = EDGE_LOOP ( 'NONE', ( #177 ) ) ;
#48 = CARTESIAN_POINT ( 'NONE',  ( 6.281823795492844412E-14, -1.854318916842698141E-15, 17.99185842870425489 ) ) ;
#49 = AXIS2_PLACEMENT_3D ( 'NONE', #71, #58, #134 ) ;
#50 = AXIS2_PLACEMENT_3D ( 'NONE', #221, #207, #53 ) ;
#51 = EDGE_LOOP ( 'NONE', ( #10 ) ) ;
#52 = CARTESIAN_POINT ( 'NONE',  ( 6.379882905502942388E-30, 9.213202124199689317E-31, 1.827271088212905049E-15 ) ) ;
#53 = DIRECTION ( 'NONE',  ( 1.760424246579284788E-30, -1.000000000000000000, 5.042055436454325195E-16 ) ) ;
#54 = AXIS2_PLACEMENT_3D ( 'NONE', #35, #37, #229 ) ;
#55 = CC_DESIGN_PERSON_AND_ORGANIZATION_ASSIGNMENT ( #176, #38, ( #239 ) ) ;
#56 = CARTESIAN_POINT ( 'NONE',  ( 3.526396152231565067E-13, -1.040949779275250653E-14, 101.0000000000000000 ) ) ;
#57 = AXIS2_PLACEMENT_3D ( 'NONE', #68, #85, #220 ) ;
#58 = DIRECTION ( 'NONE',  ( -3.491481338843133355E-15, -5.042055436454325195E-16, -1.000000000000000000 ) ) ;
#59 = APPROVAL_DATE_TIME ( #232, #199 ) ;
#60 = APPROVAL_ROLE ( '' ) ;
#61 = EDGE_LOOP ( 'NONE', ( #100 ) ) ;
#62 = LOCAL_TIME ( 7, 52, 58.00000000000000000, #40 ) ;
#63 = FACE_BOUND ( 'NONE', #104, .T. ) ;
#64 = AXIS2_PLACEMENT_3D ( 'NONE', #203, #7, #189 ) ;
#65 = CALENDAR_DATE ( 2021, 26, 11 ) ;
#66 = VERTEX_POINT ( 'NONE', #129 ) ;
#67 = APPROVAL ( #22, 'UNSPECIFIED' ) ;
#68 = CARTESIAN_POINT ( 'NONE',  ( 5.764769122789385493E-14, 3.854999999999997762, 16.51095498823282526 ) ) ;
#69 = UNCERTAINTY_MEASURE_WITH_UNIT (LENGTH_MEASURE( 1.000000000000000082E-05 ), #204, 'distance_accuracy_value', 'NONE');
#70 = DIRECTION ( 'NONE',  ( 0.0000000000000000000, 1.000000000000000000, 0.0000000000000000000 ) ) ;
#71 = CARTESIAN_POINT ( 'NONE',  ( -3.189941452751471194E-30, 3.624059892324148269, -9.136355441064525245E-16 ) ) ;
#72 = PERSON_AND_ORGANIZATION ( #80, #187 ) ;
#73 = CC_DESIGN_DATE_AND_TIME_ASSIGNMENT ( #92, #93, ( #231 ) ) ;
#74 = DATE_TIME_ROLE ( 'classification_date' ) ;
#75 = PERSON_AND_ORGANIZATION ( #80, #187 ) ;
#76 = PERSON_AND_ORGANIZATION ( #80, #187 ) ;
#77 = LOCAL_TIME ( 7, 52, 58.00000000000000000, #9 ) ;
#78 = ADVANCED_FACE ( 'NONE', ( #112 ), #147, .T. ) ;
#79 = FACE_BOUND ( 'NONE', #61, .T. ) ;
#80 = PERSON ( 'UNSPECIFIED', 'UNSPECIFIED', 'UNSPECIFIED', ('UNSPECIFIED'), ('UNSPECIFIED'), ('UNSPECIFIED') ) ;
#81 = PLANE ( 'NONE',  #57 ) ;
#82 = CARTESIAN_POINT ( 'NONE',  ( 1.396592535537253342E-15, 3.854999999999998206, 0.3999999999999999667 ) ) ;
#83 = CIRCLE ( 'NONE', #227, 2.399999999999996358 ) ;
#84 = EDGE_LOOP ( 'NONE', ( #124 ) ) ;
#85 = DIRECTION ( 'NONE',  ( -3.491481338843133355E-15, 1.030643345817079849E-16, -1.000000000000000000 ) ) ;
#86 = CC_DESIGN_APPROVAL ( #67, ( #231 ) ) ;
#87 = APPROVAL ( #160, 'UNSPECIFIED' ) ;
#88 = DESIGN_CONTEXT ( 'detailed design', #139, 'design' ) ;
#89 = EDGE_CURVE ( 'NONE', #205, #205, #195, .T. ) ;
#90 = SECURITY_CLASSIFICATION ( '', '', #172 ) ;
#91 = DIRECTION ( 'NONE',  ( -3.491481338843133355E-15, -5.042055436454325195E-16, -1.000000000000000000 ) ) ;
#92 = DATE_AND_TIME ( #41, #210 ) ;
#93 = DATE_TIME_ROLE ( 'creation_date' ) ;
#94 = CIRCLE ( 'NONE', #136, 3.854999999999999538 ) ;
#95 = APPLICATION_PROTOCOL_DEFINITION ( 'international standard', 'config_control_design', 1994, #139 ) ;
#96 = ORIENTED_EDGE ( 'NONE', *, *, #111, .T. ) ;
#97 = DATE_AND_TIME ( #141, #77 ) ;
#98 = ADVANCED_FACE ( 'NONE', ( #103 ), #81, .T. ) ;
#99 = DIRECTION ( 'NONE',  ( -3.491481338843133355E-15, -5.042055436454325195E-16, -1.000000000000000000 ) ) ;
#100 = ORIENTED_EDGE ( 'NONE', *, *, #140, .T. ) ;
#101 = DIRECTION ( 'NONE',  ( 0.0000000000000000000, 1.000000000000000000, 0.0000000000000000000 ) ) ;
#102 = EDGE_LOOP ( 'NONE', ( #179 ) ) ;
#103 = FACE_OUTER_BOUND ( 'NONE', #84, .T. ) ;
#104 = EDGE_LOOP ( 'NONE', ( #96 ) ) ;
#105 = VERTEX_POINT ( 'NONE', #143 ) ;
#106 = DIRECTION ( 'NONE',  ( 0.0000000000000000000, 1.000000000000000000, 0.0000000000000000000 ) ) ;
#107 = ORIENTED_EDGE ( 'NONE', *, *, #89, .F. ) ;
#108 = AXIS2_PLACEMENT_3D ( 'NONE', #52, #163, #13 ) ;
#109 = ORIENTED_EDGE ( 'NONE', *, *, #111, .F. ) ;
#110 = CARTESIAN_POINT ( 'NONE',  ( 5.764769122789388017E-14, 8.324915035947201558E-15, 16.51095498823283236 ) ) ;
#111 = EDGE_CURVE ( 'NONE', #243, #243, #83, .T. ) ;
#112 = FACE_OUTER_BOUND ( 'NONE', #196, .T. ) ;
#113 = DIRECTION ( 'NONE',  ( -3.491481338843133355E-15, 1.030643345817079849E-16, -1.000000000000000000 ) ) ;
#114 = CARTESIAN_POINT ( 'NONE',  ( 0.0000000000000000000, 0.0000000000000000000, 0.0000000000000000000 ) ) ;
#115 = CARTESIAN_POINT ( 'NONE',  ( 5.764769122789386755E-14, -1.701690589170748766E-15, 16.51095498823282881 ) ) ;
#116 = DIRECTION ( 'NONE',  ( 1.760424246579284788E-30, -1.000000000000000000, 5.042055436454326181E-16 ) ) ;
#117 = CARTESIAN_POINT ( 'NONE',  ( 0.0000000000000000000, 0.0000000000000000000, 0.0000000000000000000 ) ) ;
#118 = APPROVAL_DATE_TIME ( #97, #67 ) ;
#119 = MECHANICAL_CONTEXT ( 'NONE', #132, 'mechanical' ) ;
#120 = ADVANCED_BREP_SHAPE_REPRESENTATION ( '341820', ( #14, #15, #17 ), #237 ) ;
#121 = PERSON_AND_ORGANIZATION_ROLE ( 'creator' ) ;
#122 = CIRCLE ( 'NONE', #43, 2.999999999999989786 ) ;
#123 = COORDINATED_UNIVERSAL_TIME_OFFSET ( 1, 0, .AHEAD. ) ;
#124 = ORIENTED_EDGE ( 'NONE', *, *, #219, .T. ) ;
#125 = DIRECTION ( 'NONE',  ( -3.491481338843133355E-15, 1.030643345817079849E-16, -1.000000000000000000 ) ) ;
#126 = AXIS2_PLACEMENT_3D ( 'NONE', #114, #16, #186 ) ;
#127 = ORIENTED_EDGE ( 'NONE', *, *, #193, .F. ) ;
#128 = FACE_OUTER_BOUND ( 'NONE', #28, .T. ) ;
#129 = CARTESIAN_POINT ( 'NONE',  ( 6.281823795492844412E-14, 2.999999999999988010, 17.99185842870425489 ) ) ;
#130 = FACE_OUTER_BOUND ( 'NONE', #30, .T. ) ;
#131 = CIRCLE ( 'NONE', #108, 3.624059892324148269 ) ;
#132 = APPLICATION_CONTEXT ( 'configuration controlled 3d designs of mechanical parts and assemblies' ) ;
#133 = FACE_OUTER_BOUND ( 'NONE', #102, .T. ) ;
#134 = DIRECTION ( 'NONE',  ( -1.760424246579284788E-30, 1.000000000000000000, -5.042055436454325195E-16 ) ) ;
#135 = PRODUCT_DEFINITION_SHAPE ( 'NONE', 'NONE',  #231 ) ;
#136 = AXIS2_PLACEMENT_3D ( 'NONE', #115, #113, #70 ) ;
#137 = PERSON_AND_ORGANIZATION_ROLE ( 'classification_officer' ) ;
#138 = CC_DESIGN_DATE_AND_TIME_ASSIGNMENT ( #191, #74, ( #90 ) ) ;
#139 = APPLICATION_CONTEXT ( 'configuration controlled 3d designs of mechanical parts and assemblies' ) ;
#140 = EDGE_CURVE ( 'NONE', #66, #66, #122, .T. ) ;
#141 = CALENDAR_DATE ( 2021, 26, 11 ) ;
#142 = CIRCLE ( 'NONE', #54, 2.999999999999996003 ) ;
#143 = CARTESIAN_POINT ( 'NONE',  ( 5.764769122789386755E-14, 3.854999999999997762, 16.51095498823282881 ) ) ;
#144 = VERTEX_POINT ( 'NONE', #222 ) ;
#145 = DIRECTION ( 'NONE',  ( -3.491481338843133355E-15, 1.030643345817079849E-16, -1.000000000000000000 ) ) ;
#146 = AXIS2_PLACEMENT_3D ( 'NONE', #26, #20, #116 ) ;
#147 = PLANE ( 'NONE',  #25 ) ;
#148 = APPROVAL_PERSON_ORGANIZATION ( #45, #199, #234 ) ;
#149 = DIRECTION ( 'NONE',  ( 0.0000000000000000000, 1.000000000000000000, 0.0000000000000000000 ) ) ;
#150 = AXIS2_PLACEMENT_3D ( 'NONE', #198, #99, #190 ) ;
#151 = FACE_OUTER_BOUND ( 'NONE', #215, .T. ) ;
#152 = CC_DESIGN_PERSON_AND_ORGANIZATION_ASSIGNMENT ( #72, #137, ( #90 ) ) ;
#153 = PERSON_AND_ORGANIZATION_ROLE ( 'creator' ) ;
#154 = DIRECTION ( 'NONE',  ( 3.491481338843133355E-15, -1.030643345817079849E-16, 1.000000000000000000 ) ) ;
#155 = CARTESIAN_POINT ( 'NONE',  ( 5.764769122789386755E-14, -1.701690589170748766E-15, 16.51095498823282881 ) ) ;
#156 = PRODUCT_DEFINITION_FORMATION_WITH_SPECIFIED_SOURCE ( 'ANY', '', #239, .NOT_KNOWN. ) ;
#157 = SHAPE_DEFINITION_REPRESENTATION ( #135, #120 ) ;
#158 = APPLICATION_PROTOCOL_DEFINITION ( 'international standard', 'config_control_design', 1994, #132 ) ;
#159 = APPROVAL_PERSON_ORGANIZATION ( #236, #67, #60 ) ;
#160 = APPROVAL_STATUS ( 'not_yet_approved' ) ;
#161 = ORIENTED_EDGE ( 'NONE', *, *, #171, .F. ) ;
#162 = ADVANCED_FACE ( 'NONE', ( #79, #151 ), #21, .T. ) ;
#163 = DIRECTION ( 'NONE',  ( -3.491481338843133355E-15, -5.042055436454325195E-16, -1.000000000000000000 ) ) ;
#164 = CC_DESIGN_APPROVAL ( #87, ( #90 ) ) ;
#165 = AXIS2_PLACEMENT_3D ( 'NONE', #170, #91, #224 ) ;
#166 = ORIENTED_EDGE ( 'NONE', *, *, #219, .F. ) ;
#167 = ADVANCED_FACE ( 'NONE', ( #133, #209 ), #36, .T. ) ;
#168 = DIRECTION ( 'NONE',  ( -3.491481338843133355E-15, 1.030643345817079849E-16, -1.000000000000000000 ) ) ;
#169 = LOCAL_TIME ( 7, 52, 58.00000000000000000, #24 ) ;
#170 = CARTESIAN_POINT ( 'NONE',  ( 0.0000000000000000000, 0.0000000000000000000, 0.0000000000000000000 ) ) ;
#171 = EDGE_CURVE ( 'NONE', #144, #144, #226, .T. ) ;
#172 = SECURITY_CLASSIFICATION_LEVEL ( 'unclassified' ) ;
#173 = APPROVAL_DATE_TIME ( #8, #87 ) ;
#174 = CONICAL_SURFACE ( 'NONE', #64, 2.999999999999996003, 0.7853981633974453924 ) ;
#175 = ADVANCED_FACE ( 'NONE', ( #63, #128 ), #174, .T. ) ;
#176 = PERSON_AND_ORGANIZATION ( #80, #187 ) ;
#177 = ORIENTED_EDGE ( 'NONE', *, *, #89, .T. ) ;
#178 = PERSON_AND_ORGANIZATION ( #80, #187 ) ;
#179 = ORIENTED_EDGE ( 'NONE', *, *, #193, .T. ) ;
#180 = ADVANCED_FACE ( 'NONE', ( #42, #23 ), #3, .T. ) ;
#181 = ORIENTED_EDGE ( 'NONE', *, *, #241, .F. ) ;
#182 = VERTEX_POINT ( 'NONE', #242 ) ;
#183 = APPROVAL_PERSON_ORGANIZATION ( #178, #87, #5 ) ;
#184 = LOCAL_TIME ( 7, 52, 58.00000000000000000, #123 ) ;
#185 = PLANE ( 'NONE',  #49 ) ;
#186 = DIRECTION ( 'NONE',  ( 3.598472008923184252E-31, 1.000000000000000000, 1.030643345817079726E-16 ) ) ;
#187 = ORGANIZATION ( 'UNSPECIFIED', 'UNSPECIFIED', '' ) ;
#188 = CYLINDRICAL_SURFACE ( 'NONE', #165, 3.854999999999993765 ) ;
#189 = DIRECTION ( 'NONE',  ( 0.0000000000000000000, 1.000000000000000000, 0.0000000000000000000 ) ) ;
#190 = DIRECTION ( 'NONE',  ( -1.748574527978035808E-30, 1.000000000000000000, -5.062422595263057952E-16 ) ) ;
#191 = DATE_AND_TIME ( #235, #62 ) ;
#192 = DIRECTION ( 'NONE',  ( -3.598472008923184252E-31, -1.000000000000000000, -1.030643345817079849E-16 ) ) ;
#193 = EDGE_CURVE ( 'NONE', #202, #202, #142, .T. ) ;
#194 = DIRECTION ( 'NONE',  ( -3.197393422588416083E-30, 1.000000000000000000, -8.999862391578790948E-16 ) ) ;
#195 = CIRCLE ( 'NONE', #150, 3.854999999999998206 ) ;
#196 = EDGE_LOOP ( 'NONE', ( #109 ) ) ;
#197 = APPROVAL_STATUS ( 'not_yet_approved' ) ;
#198 = CARTESIAN_POINT ( 'NONE',  ( 1.396592535537260047E-15, 2.016822174581739791E-16, 0.4000000000000019096 ) ) ;
#199 = APPROVAL ( #197, 'UNSPECIFIED' ) ;
#200 = CLOSED_SHELL ( 'NONE', ( #78, #175, #167, #162, #98 ) ) ;
#201 = EDGE_LOOP ( 'NONE', ( #181 ) ) ;
#202 = VERTEX_POINT ( 'NONE', #31 ) ;
#203 = CARTESIAN_POINT ( 'NONE',  ( 3.505447264198505636E-13, -1.034765919200348261E-14, 100.4000000000000057 ) ) ;
#204 =( LENGTH_UNIT ( ) NAMED_UNIT ( * ) SI_UNIT ( .MILLI., .METRE. ) );
#205 = VERTEX_POINT ( 'NONE', #82 ) ;
#206 = CARTESIAN_POINT ( 'NONE',  ( 3.526396152231565067E-13, -1.040949779275250653E-14, 101.0000000000000000 ) ) ;
#207 = DIRECTION ( 'NONE',  ( 3.491481338843133355E-15, 5.042055436454325195E-16, 1.000000000000000000 ) ) ;
#208 = CLOSED_SHELL ( 'NONE', ( #2, #39, #180, #225 ) ) ;
#209 = FACE_OUTER_BOUND ( 'NONE', #44, .T. ) ;
#210 = LOCAL_TIME ( 7, 52, 58.00000000000000000, #213 ) ;
#211 = PERSON_AND_ORGANIZATION ( #80, #187 ) ;
#212 = CC_DESIGN_PERSON_AND_ORGANIZATION_ASSIGNMENT ( #211, #29, ( #156 ) ) ;
#213 = COORDINATED_UNIVERSAL_TIME_OFFSET ( 1, 0, .AHEAD. ) ;
#214 = DIRECTION ( 'NONE',  ( 0.0000000000000000000, 0.0000000000000000000, 1.000000000000000000 ) ) ;
#215 = EDGE_LOOP ( 'NONE', ( #166 ) ) ;
#216 = EDGE_LOOP ( 'NONE', ( #12 ) ) ;
#217 = FACE_OUTER_BOUND ( 'NONE', #32, .T. ) ;
#218 = AXIS2_PLACEMENT_3D ( 'NONE', #110, #6, #194 ) ;
#219 = EDGE_CURVE ( 'NONE', #105, #105, #94, .T. ) ;
#220 = DIRECTION ( 'NONE',  ( 3.598472008923184252E-31, 1.000000000000000000, 1.030643345817079849E-16 ) ) ;
#221 = CARTESIAN_POINT ( 'NONE',  ( 5.764769122789385493E-14, 8.324915035947198403E-15, 16.51095498823282526 ) ) ;
#222 = CARTESIAN_POINT ( 'NONE',  ( 5.764769122789386755E-14, 3.854999999999997762, 16.51095498823282881 ) ) ;
#223 = CC_DESIGN_APPROVAL ( #199, ( #156 ) ) ;
#224 = DIRECTION ( 'NONE',  ( -1.760424246579284788E-30, 1.000000000000000000, -5.042055436454326181E-16 ) ) ;
#225 = ADVANCED_FACE ( 'NONE', ( #228 ), #185, .T. ) ;
#226 = CIRCLE ( 'NONE', #218, 3.854999999999989324 ) ;
#227 = AXIS2_PLACEMENT_3D ( 'NONE', #206, #145, #106 ) ;
#228 = FACE_OUTER_BOUND ( 'NONE', #216, .T. ) ;
#229 = DIRECTION ( 'NONE',  ( 0.0000000000000000000, 1.000000000000000000, 0.0000000000000000000 ) ) ;
#230 =( NAMED_UNIT ( * ) PLANE_ANGLE_UNIT ( ) SI_UNIT ( $, .RADIAN. ) );
#231 = PRODUCT_DEFINITION ( 'UNKNOWN', '', #156, #88 ) ;
#232 = DATE_AND_TIME ( #65, #184 ) ;
#233 = AXIS2_PLACEMENT_3D ( 'NONE', #155, #168, #149 ) ;
#234 = APPROVAL_ROLE ( '' ) ;
#235 = CALENDAR_DATE ( 2021, 26, 11 ) ;
#236 = PERSON_AND_ORGANIZATION ( #80, #187 ) ;
#237 =( GEOMETRIC_REPRESENTATION_CONTEXT ( 3 ) GLOBAL_UNCERTAINTY_ASSIGNED_CONTEXT ( ( #69 ) ) GLOBAL_UNIT_ASSIGNED_CONTEXT ( ( #204, #230, #19 ) ) REPRESENTATION_CONTEXT ( 'NONE', 'WORKASPACE' ) );
#238 = CALENDAR_DATE ( 2021, 26, 11 ) ;
#239 = PRODUCT ( '341820', '341820', '', ( #119 ) ) ;
#240 = ORIENTED_EDGE ( 'NONE', *, *, #140, .F. ) ;
#241 = EDGE_CURVE ( 'NONE', #182, #182, #131, .T. ) ;
#242 = CARTESIAN_POINT ( 'NONE',  ( -1.368455531567204171E-45, 3.624059892324148269, 0.0000000000000000000 ) ) ;
#243 = VERTEX_POINT ( 'NONE', #1 ) ;
ENDSEC;
END-ISO-10303-21;
