ISO-10303-21;
HEADER;
FILE_DESCRIPTION (( 'STEP AP203' ),
    '1' );
FILE_NAME ('341810.step',
    '2021-11-26T06:52:57',
    ( '' ),
    ( '' ),
    'SwSTEP 2.0',
    'SolidWorks 2019',
    '' );
FILE_SCHEMA (( 'CONFIG_CONTROL_DESIGN' ));
ENDSEC;

DATA;
#1 = CLOSED_SHELL ( 'NONE', ( #84, #134, #181, #120 ) ) ;
#2 = EDGE_LOOP ( 'NONE', ( #180 ) ) ;
#3 = CONICAL_SURFACE ( 'NONE', #107, 3.574059892324148890, 0.5235987755982978165 ) ;
#4 = CARTESIAN_POINT ( 'NONE',  ( 0.0000000000000000000, 0.0000000000000000000, 0.0000000000000000000 ) ) ;
#5 = FACE_OUTER_BOUND ( 'NONE', #92, .T. ) ;
#6 = PRODUCT_RELATED_PRODUCT_CATEGORY ( 'detail', '', ( #227 ) ) ;
#7 = DIRECTION ( 'NONE',  ( -1.746776649058018420E-30, 1.000000000000000000, -5.002967163607395680E-16 ) ) ;
#8 = LOCAL_TIME ( 7, 52, 57.00000000000000000, #198 ) ;
#9 = CARTESIAN_POINT ( 'NONE',  ( 6.243084362246638621E-30, 8.945757697877257425E-31, 1.788090428206389988E-15 ) ) ;
#10 = EDGE_CURVE ( 'NONE', #157, #157, #200, .T. ) ;
#11 = CC_DESIGN_PERSON_AND_ORGANIZATION_ASSIGNMENT ( #113, #98, ( #182 ) ) ;
#12 = DATE_AND_TIME ( #194, #87 ) ;
#13 = CIRCLE ( 'NONE', #111, 3.804999999999998384 ) ;
#14 = EDGE_CURVE ( 'NONE', #65, #65, #195, .T. ) ;
#15 = CIRCLE ( 'NONE', #97, 3.804999999999989946 ) ;
#16 = APPROVAL ( #90, 'UNSPECIFIED' ) ;
#17 = EDGE_LOOP ( 'NONE', ( #106 ) ) ;
#18 = AXIS2_PLACEMENT_3D ( 'NONE', #168, #60, #109 ) ;
#19 = ORIENTED_EDGE ( 'NONE', *, *, #172, .F. ) ;
#20 = DIRECTION ( 'NONE',  ( -3.491481338843133355E-15, 1.030643345817079849E-16, -1.000000000000000000 ) ) ;
#21 = CARTESIAN_POINT ( 'NONE',  ( 1.396592535537259850E-15, 2.001186865442967640E-16, 0.4000000000000018541 ) ) ;
#22 = CC_DESIGN_APPROVAL ( #230, ( #39 ) ) ;
#23 = DIRECTION ( 'NONE',  ( 0.0000000000000000000, 1.000000000000000000, 0.0000000000000000000 ) ) ;
#24 = VERTEX_POINT ( 'NONE', #80 ) ;
#25 = DIRECTION ( 'NONE',  ( 0.0000000000000000000, 0.0000000000000000000, 1.000000000000000000 ) ) ;
#26 = APPLICATION_PROTOCOL_DEFINITION ( 'international standard', 'config_control_design', 1994, #203 ) ;
#27 = CARTESIAN_POINT ( 'NONE',  ( 3.505447264198505636E-13, -1.034765919200348261E-14, 100.4000000000000057 ) ) ;
#28 = COORDINATED_UNIVERSAL_TIME_OFFSET ( 1, 0, .AHEAD. ) ;
#29 = ORGANIZATION ( 'UNSPECIFIED', 'UNSPECIFIED', '' ) ;
#30 = EDGE_LOOP ( 'NONE', ( #154 ) ) ;
#31 = PERSON ( 'UNSPECIFIED', 'UNSPECIFIED', 'UNSPECIFIED', ('UNSPECIFIED'), ('UNSPECIFIED'), ('UNSPECIFIED') ) ;
#32 = SHAPE_DEFINITION_REPRESENTATION ( #128, #53 ) ;
#33 = CARTESIAN_POINT ( 'NONE',  ( 0.0000000000000000000, 0.0000000000000000000, 0.0000000000000000000 ) ) ;
#34 = CC_DESIGN_PERSON_AND_ORGANIZATION_ASSIGNMENT ( #170, #156, ( #227 ) ) ;
#35 = CIRCLE ( 'NONE', #178, 2.999999999999989786 ) ;
#36 = FACE_BOUND ( 'NONE', #54, .T. ) ;
#37 = PLANE ( 'NONE',  #18 ) ;
#38 = DIRECTION ( 'NONE',  ( -3.491481338843133355E-15, 1.030643345817079849E-16, -1.000000000000000000 ) ) ;
#39 = SECURITY_CLASSIFICATION ( '', '', #81 ) ;
#40 = PERSON_AND_ORGANIZATION ( #31, #29 ) ;
#41 = DIRECTION ( 'NONE',  ( 0.0000000000000000000, 1.000000000000000000, 0.0000000000000000000 ) ) ;
#42 = PERSON_AND_ORGANIZATION_ROLE ( 'creator' ) ;
#43 = APPROVAL_ROLE ( '' ) ;
#44 = ADVANCED_FACE ( 'NONE', ( #127 ), #73, .T. ) ;
#45 = LOCAL_TIME ( 7, 52, 57.00000000000000000, #28 ) ;
#46 = VERTEX_POINT ( 'NONE', #132 ) ;
#47 = CARTESIAN_POINT ( 'NONE',  ( 5.795006238152161798E-14, 3.804999999999997939, 16.59755752861127576 ) ) ;
#48 = DATE_TIME_ROLE ( 'creation_date' ) ;
#49 = CIRCLE ( 'NONE', #115, 2.999999999999996003 ) ;
#50 = EDGE_LOOP ( 'NONE', ( #226 ) ) ;
#51 = EDGE_LOOP ( 'NONE', ( #202 ) ) ;
#52 = CC_DESIGN_PERSON_AND_ORGANIZATION_ASSIGNMENT ( #199, #118, ( #126 ) ) ;
#53 = ADVANCED_BREP_SHAPE_REPRESENTATION ( '341810', ( #119, #209, #103 ), #141 ) ;
#54 = EDGE_LOOP ( 'NONE', ( #201 ) ) ;
#55 = DIRECTION ( 'NONE',  ( 3.491481338843133355E-15, 5.002967163607395680E-16, 1.000000000000000000 ) ) ;
#56 = APPROVAL_PERSON_ORGANIZATION ( #62, #91, #43 ) ;
#57 = DIRECTION ( 'NONE',  ( -1.746776649058018420E-30, 1.000000000000000000, -5.002967163607395680E-16 ) ) ;
#58 = EDGE_CURVE ( 'NONE', #117, #117, #49, .T. ) ;
#59 = CARTESIAN_POINT ( 'NONE',  ( 5.795006238152161798E-14, -1.710616222367938834E-15, 16.59755752861127576 ) ) ;
#60 = DIRECTION ( 'NONE',  ( 3.491481338843133355E-15, 5.002967163607395680E-16, 1.000000000000000000 ) ) ;
#61 = CARTESIAN_POINT ( 'NONE',  ( 0.0000000000000000000, 0.0000000000000000000, 0.0000000000000000000 ) ) ;
#62 = PERSON_AND_ORGANIZATION ( #31, #29 ) ;
#63 = CARTESIAN_POINT ( 'NONE',  ( 5.795006238152163060E-14, 8.303703531172694363E-15, 16.59755752861127931 ) ) ;
#64 = AXIS2_PLACEMENT_3D ( 'NONE', #191, #78, #57 ) ;
#65 = VERTEX_POINT ( 'NONE', #47 ) ;
#66 = CARTESIAN_POINT ( 'NONE',  ( 0.0000000000000000000, 3.574059892324148890, 0.0000000000000000000 ) ) ;
#67 = ORIENTED_EDGE ( 'NONE', *, *, #172, .T. ) ;
#68 = PERSON_AND_ORGANIZATION ( #31, #29 ) ;
#69 = ORIENTED_EDGE ( 'NONE', *, *, #58, .T. ) ;
#70 = AXIS2_PLACEMENT_3D ( 'NONE', #4, #148, #237 ) ;
#71 = LOCAL_TIME ( 7, 52, 57.00000000000000000, #144 ) ;
#72 = CC_DESIGN_PERSON_AND_ORGANIZATION_ASSIGNMENT ( #68, #42, ( #182 ) ) ;
#73 = PLANE ( 'NONE',  #239 ) ;
#74 = DIRECTION ( 'NONE',  ( -3.491481338843133355E-15, 1.030643345817079849E-16, -1.000000000000000000 ) ) ;
#75 = CARTESIAN_POINT ( 'NONE',  ( 3.505447264198505636E-13, -1.034765919200348261E-14, 100.4000000000000057 ) ) ;
#76 = APPROVAL_PERSON_ORGANIZATION ( #40, #16, #220 ) ;
#77 = DIRECTION ( 'NONE',  ( -1.771551854232675097E-30, 1.000000000000000000, -4.986475169118616760E-16 ) ) ;
#78 = DIRECTION ( 'NONE',  ( -3.491481338843133355E-15, -5.002967163607395680E-16, -1.000000000000000000 ) ) ;
#79 = EDGE_CURVE ( 'NONE', #24, #24, #35, .T. ) ;
#80 = CARTESIAN_POINT ( 'NONE',  ( 6.281823795492844412E-14, 2.999999999999988010, 17.99185842870425489 ) ) ;
#81 = SECURITY_CLASSIFICATION_LEVEL ( 'unclassified' ) ;
#82 = APPROVAL_DATE_TIME ( #12, #91 ) ;
#83 = CARTESIAN_POINT ( 'NONE',  ( 5.795006238152161798E-14, 3.804999999999997939, 16.59755752861127576 ) ) ;
#84 = ADVANCED_FACE ( 'NONE', ( #93 ), #37, .T. ) ;
#85 = CC_DESIGN_SECURITY_CLASSIFICATION ( #39, ( #182 ) ) ;
#86 = APPROVAL_DATE_TIME ( #139, #16 ) ;
#87 = LOCAL_TIME ( 7, 52, 57.00000000000000000, #114 ) ;
#88 = EDGE_LOOP ( 'NONE', ( #67 ) ) ;
#89 = EDGE_LOOP ( 'NONE', ( #236 ) ) ;
#90 = APPROVAL_STATUS ( 'not_yet_approved' ) ;
#91 = APPROVAL ( #217, 'UNSPECIFIED' ) ;
#92 = EDGE_LOOP ( 'NONE', ( #19 ) ) ;
#93 = FACE_OUTER_BOUND ( 'NONE', #50, .T. ) ;
#94 = EDGE_LOOP ( 'NONE', ( #69 ) ) ;
#95 = VERTEX_POINT ( 'NONE', #83 ) ;
#96 = PERSON_AND_ORGANIZATION ( #31, #29 ) ;
#97 = AXIS2_PLACEMENT_3D ( 'NONE', #63, #133, #135 ) ;
#98 = PERSON_AND_ORGANIZATION_ROLE ( 'design_supplier' ) ;
#99 =( NAMED_UNIT ( * ) SI_UNIT ( $, .STERADIAN. ) SOLID_ANGLE_UNIT ( ) );
#100 = CARTESIAN_POINT ( 'NONE',  ( 3.526396152231565067E-13, -1.040949779275250653E-14, 101.0000000000000000 ) ) ;
#101 = CALENDAR_DATE ( 2021, 26, 11 ) ;
#102 = CALENDAR_DATE ( 2021, 26, 11 ) ;
#103 = AXIS2_PLACEMENT_3D ( 'NONE', #61, #25, #173 ) ;
#104 = ADVANCED_FACE ( 'NONE', ( #36, #108 ), #155, .T. ) ;
#105 = FACE_OUTER_BOUND ( 'NONE', #121, .T. ) ;
#106 = ORIENTED_EDGE ( 'NONE', *, *, #10, .F. ) ;
#107 = AXIS2_PLACEMENT_3D ( 'NONE', #9, #55, #153 ) ;
#108 = FACE_OUTER_BOUND ( 'NONE', #231, .T. ) ;
#109 = DIRECTION ( 'NONE',  ( 1.746776649058018420E-30, -1.000000000000000000, 5.002967163607395680E-16 ) ) ;
#110 = CARTESIAN_POINT ( 'NONE',  ( 6.281823795492844412E-14, -1.854318916842698141E-15, 17.99185842870425489 ) ) ;
#111 = AXIS2_PLACEMENT_3D ( 'NONE', #21, #187, #77 ) ;
#112 = FACE_BOUND ( 'NONE', #159, .T. ) ;
#113 = PERSON_AND_ORGANIZATION ( #31, #29 ) ;
#114 = COORDINATED_UNIVERSAL_TIME_OFFSET ( 1, 0, .AHEAD. ) ;
#115 = AXIS2_PLACEMENT_3D ( 'NONE', #75, #38, #23 ) ;
#116 =( LENGTH_UNIT ( ) NAMED_UNIT ( * ) SI_UNIT ( .MILLI., .METRE. ) );
#117 = VERTEX_POINT ( 'NONE', #242 ) ;
#118 = PERSON_AND_ORGANIZATION_ROLE ( 'creator' ) ;
#119 = MANIFOLD_SOLID_BREP ( 'Corps-Déplacer/Copier1[1]', #122 ) ;
#120 = ADVANCED_FACE ( 'NONE', ( #162 ), #189, .T. ) ;
#121 = EDGE_LOOP ( 'NONE', ( #223 ) ) ;
#122 = CLOSED_SHELL ( 'NONE', ( #216, #197, #177, #104, #44 ) ) ;
#123 = CARTESIAN_POINT ( 'NONE',  ( -3.121542181123319310E-30, 3.574059892324148890, -8.940452141031949939E-16 ) ) ;
#124 = DIRECTION ( 'NONE',  ( -3.491481338843133355E-15, -5.002967163607395680E-16, -1.000000000000000000 ) ) ;
#125 = AXIS2_PLACEMENT_3D ( 'NONE', #59, #238, #232 ) ;
#126 = PRODUCT_DEFINITION ( 'UNKNOWN', '', #182, #160 ) ;
#127 = FACE_OUTER_BOUND ( 'NONE', #51, .T. ) ;
#128 = PRODUCT_DEFINITION_SHAPE ( 'NONE', 'NONE',  #126 ) ;
#129 = ORIENTED_EDGE ( 'NONE', *, *, #58, .F. ) ;
#130 = CARTESIAN_POINT ( 'NONE',  ( 5.795006238152161798E-14, -1.710616222367938834E-15, 16.59755752861127576 ) ) ;
#131 = AXIS2_PLACEMENT_3D ( 'NONE', #27, #240, #41 ) ;
#132 = CARTESIAN_POINT ( 'NONE',  ( 1.396592535537253145E-15, 3.804999999999998384, 0.3999999999999999667 ) ) ;
#133 = DIRECTION ( 'NONE',  ( -3.491481338843133355E-15, -5.002967163607395680E-16, -1.000000000000000000 ) ) ;
#134 = ADVANCED_FACE ( 'NONE', ( #105, #5 ), #183, .T. ) ;
#135 = DIRECTION ( 'NONE',  ( -3.239409104882612859E-30, 1.000000000000000000, -9.118126023531204541E-16 ) ) ;
#136 = CC_DESIGN_APPROVAL ( #16, ( #182 ) ) ;
#137 = PLANE ( 'NONE',  #229 ) ;
#138 = MECHANICAL_CONTEXT ( 'NONE', #203, 'mechanical' ) ;
#139 = DATE_AND_TIME ( #101, #8 ) ;
#140 = ORIENTED_EDGE ( 'NONE', *, *, #219, .T. ) ;
#141 =( GEOMETRIC_REPRESENTATION_CONTEXT ( 3 ) GLOBAL_UNCERTAINTY_ASSIGNED_CONTEXT ( ( #228 ) ) GLOBAL_UNIT_ASSIGNED_CONTEXT ( ( #116, #158, #99 ) ) REPRESENTATION_CONTEXT ( 'NONE', 'WORKASPACE' ) );
#142 = EDGE_LOOP ( 'NONE', ( #129 ) ) ;
#143 = COORDINATED_UNIVERSAL_TIME_OFFSET ( 1, 0, .AHEAD. ) ;
#144 = COORDINATED_UNIVERSAL_TIME_OFFSET ( 1, 0, .AHEAD. ) ;
#145 = CIRCLE ( 'NONE', #213, 2.399999999999996358 ) ;
#146 = LOCAL_TIME ( 7, 52, 57.00000000000000000, #143 ) ;
#147 = ORIENTED_EDGE ( 'NONE', *, *, #14, .F. ) ;
#148 = DIRECTION ( 'NONE',  ( -3.491481338843133355E-15, -5.002967163607395680E-16, -1.000000000000000000 ) ) ;
#149 = CALENDAR_DATE ( 2021, 26, 11 ) ;
#150 = FACE_OUTER_BOUND ( 'NONE', #2, .T. ) ;
#151 = CALENDAR_DATE ( 2021, 26, 11 ) ;
#152 = DIRECTION ( 'NONE',  ( 3.598472008923184252E-31, 1.000000000000000000, 1.030643345817079726E-16 ) ) ;
#153 = DIRECTION ( 'NONE',  ( 1.746776649058018420E-30, -1.000000000000000000, 5.002967163607395680E-16 ) ) ;
#154 = ORIENTED_EDGE ( 'NONE', *, *, #10, .T. ) ;
#155 = CONICAL_SURFACE ( 'NONE', #190, 3.804999999999999716, 0.5235987755982937086 ) ;
#156 = PERSON_AND_ORGANIZATION_ROLE ( 'design_owner' ) ;
#157 = VERTEX_POINT ( 'NONE', #66 ) ;
#158 =( NAMED_UNIT ( * ) PLANE_ANGLE_UNIT ( ) SI_UNIT ( $, .RADIAN. ) );
#159 = EDGE_LOOP ( 'NONE', ( #140 ) ) ;
#160 = DESIGN_CONTEXT ( 'detailed design', #175, 'design' ) ;
#161 = APPROVAL_DATE_TIME ( #204, #230 ) ;
#162 = FACE_OUTER_BOUND ( 'NONE', #30, .T. ) ;
#163 = DIRECTION ( 'NONE',  ( -3.491481338843133355E-15, 1.030643345817079849E-16, -1.000000000000000000 ) ) ;
#164 = CYLINDRICAL_SURFACE ( 'NONE', #207, 2.999999999999993339 ) ;
#165 = DATE_TIME_ROLE ( 'classification_date' ) ;
#166 = FACE_OUTER_BOUND ( 'NONE', #88, .T. ) ;
#167 = CC_DESIGN_PERSON_AND_ORGANIZATION_ASSIGNMENT ( #225, #184, ( #39 ) ) ;
#168 = CARTESIAN_POINT ( 'NONE',  ( 5.795006238152163060E-14, 8.303703531172694363E-15, 16.59755752861127931 ) ) ;
#169 = CARTESIAN_POINT ( 'NONE',  ( 3.526396152231565067E-13, 2.399999999999985700, 101.0000000000000000 ) ) ;
#170 = PERSON_AND_ORGANIZATION ( #31, #29 ) ;
#171 = CONICAL_SURFACE ( 'NONE', #131, 2.999999999999996003, 0.7853981633974453924 ) ;
#172 = EDGE_CURVE ( 'NONE', #46, #46, #13, .T. ) ;
#173 = DIRECTION ( 'NONE',  ( 1.000000000000000000, 0.0000000000000000000, 0.0000000000000000000 ) ) ;
#174 = DIRECTION ( 'NONE',  ( 0.0000000000000000000, 1.000000000000000000, 0.0000000000000000000 ) ) ;
#175 = APPLICATION_CONTEXT ( 'configuration controlled 3d designs of mechanical parts and assemblies' ) ;
#176 = FACE_OUTER_BOUND ( 'NONE', #89, .T. ) ;
#177 = ADVANCED_FACE ( 'NONE', ( #206, #150 ), #164, .T. ) ;
#178 = AXIS2_PLACEMENT_3D ( 'NONE', #110, #74, #208 ) ;
#179 = APPROVAL_PERSON_ORGANIZATION ( #96, #230, #186 ) ;
#180 = ORIENTED_EDGE ( 'NONE', *, *, #79, .F. ) ;
#181 = ADVANCED_FACE ( 'NONE', ( #166, #233 ), #3, .T. ) ;
#182 = PRODUCT_DEFINITION_FORMATION_WITH_SPECIFIED_SOURCE ( 'ANY', '', #227, .NOT_KNOWN. ) ;
#183 = CYLINDRICAL_SURFACE ( 'NONE', #70, 3.804999999999993943 ) ;
#184 = PERSON_AND_ORGANIZATION_ROLE ( 'classification_officer' ) ;
#185 = DIRECTION ( 'NONE',  ( -3.491481338843133355E-15, 1.030643345817079849E-16, -1.000000000000000000 ) ) ;
#186 = APPROVAL_ROLE ( '' ) ;
#187 = DIRECTION ( 'NONE',  ( -3.491481338843133355E-15, -5.002967163607395680E-16, -1.000000000000000000 ) ) ;
#188 = DATE_AND_TIME ( #151, #146 ) ;
#189 = PLANE ( 'NONE',  #224 ) ;
#190 = AXIS2_PLACEMENT_3D ( 'NONE', #130, #163, #214 ) ;
#191 = CARTESIAN_POINT ( 'NONE',  ( 6.243084362246638621E-30, 8.945757697877257425E-31, 1.788090428206389988E-15 ) ) ;
#192 = DIRECTION ( 'NONE',  ( -3.491481338843133355E-15, 1.030643345817079849E-16, -1.000000000000000000 ) ) ;
#193 = APPROVAL_STATUS ( 'not_yet_approved' ) ;
#194 = CALENDAR_DATE ( 2021, 26, 11 ) ;
#195 = CIRCLE ( 'NONE', #125, 3.804999999999999716 ) ;
#196 = FACE_OUTER_BOUND ( 'NONE', #142, .T. ) ;
#197 = ADVANCED_FACE ( 'NONE', ( #112, #196 ), #171, .T. ) ;
#198 = COORDINATED_UNIVERSAL_TIME_OFFSET ( 1, 0, .AHEAD. ) ;
#199 = PERSON_AND_ORGANIZATION ( #31, #29 ) ;
#200 = CIRCLE ( 'NONE', #64, 3.574059892324148890 ) ;
#201 = ORIENTED_EDGE ( 'NONE', *, *, #79, .T. ) ;
#202 = ORIENTED_EDGE ( 'NONE', *, *, #14, .T. ) ;
#203 = APPLICATION_CONTEXT ( 'configuration controlled 3d designs of mechanical parts and assemblies' ) ;
#204 = DATE_AND_TIME ( #149, #71 ) ;
#205 = CC_DESIGN_DATE_AND_TIME_ASSIGNMENT ( #188, #165, ( #39 ) ) ;
#206 = FACE_OUTER_BOUND ( 'NONE', #94, .T. ) ;
#207 = AXIS2_PLACEMENT_3D ( 'NONE', #33, #20, #152 ) ;
#208 = DIRECTION ( 'NONE',  ( 0.0000000000000000000, 1.000000000000000000, 0.0000000000000000000 ) ) ;
#209 = MANIFOLD_SOLID_BREP ( 'Corps-Déplacer/Copier1[2]', #1 ) ;
#210 = CC_DESIGN_DATE_AND_TIME_ASSIGNMENT ( #222, #48, ( #126 ) ) ;
#211 = CARTESIAN_POINT ( 'NONE',  ( 5.795006238152163060E-14, 3.804999999999997939, 16.59755752861127931 ) ) ;
#212 = DIRECTION ( 'NONE',  ( 3.598472008923184252E-31, 1.000000000000000000, 1.030643345817079849E-16 ) ) ;
#213 = AXIS2_PLACEMENT_3D ( 'NONE', #215, #192, #174 ) ;
#214 = DIRECTION ( 'NONE',  ( 0.0000000000000000000, 1.000000000000000000, 0.0000000000000000000 ) ) ;
#215 = CARTESIAN_POINT ( 'NONE',  ( 3.526396152231565067E-13, -1.040949779275250653E-14, 101.0000000000000000 ) ) ;
#216 = ADVANCED_FACE ( 'NONE', ( #176 ), #137, .T. ) ;
#217 = APPROVAL_STATUS ( 'not_yet_approved' ) ;
#218 = DIRECTION ( 'NONE',  ( 3.491481338843133355E-15, -1.030643345817079849E-16, 1.000000000000000000 ) ) ;
#219 = EDGE_CURVE ( 'NONE', #243, #243, #145, .T. ) ;
#220 = APPROVAL_ROLE ( '' ) ;
#221 = DIRECTION ( 'NONE',  ( -3.598472008923184252E-31, -1.000000000000000000, -1.030643345817079849E-16 ) ) ;
#222 = DATE_AND_TIME ( #102, #45 ) ;
#223 = ORIENTED_EDGE ( 'NONE', *, *, #234, .T. ) ;
#224 = AXIS2_PLACEMENT_3D ( 'NONE', #123, #124, #7 ) ;
#225 = PERSON_AND_ORGANIZATION ( #31, #29 ) ;
#226 = ORIENTED_EDGE ( 'NONE', *, *, #234, .F. ) ;
#227 = PRODUCT ( '341810', '341810', '', ( #138 ) ) ;
#228 = UNCERTAINTY_MEASURE_WITH_UNIT (LENGTH_MEASURE( 1.000000000000000082E-05 ), #116, 'distance_accuracy_value', 'NONE');
#229 = AXIS2_PLACEMENT_3D ( 'NONE', #100, #218, #221 ) ;
#230 = APPROVAL ( #193, 'UNSPECIFIED' ) ;
#231 = EDGE_LOOP ( 'NONE', ( #147 ) ) ;
#232 = DIRECTION ( 'NONE',  ( 0.0000000000000000000, 1.000000000000000000, 0.0000000000000000000 ) ) ;
#233 = FACE_BOUND ( 'NONE', #17, .T. ) ;
#234 = EDGE_CURVE ( 'NONE', #95, #95, #15, .T. ) ;
#235 = CC_DESIGN_APPROVAL ( #91, ( #126 ) ) ;
#236 = ORIENTED_EDGE ( 'NONE', *, *, #219, .F. ) ;
#237 = DIRECTION ( 'NONE',  ( -1.746776649058018420E-30, 1.000000000000000000, -5.002967163607395680E-16 ) ) ;
#238 = DIRECTION ( 'NONE',  ( -3.491481338843133355E-15, 1.030643345817079849E-16, -1.000000000000000000 ) ) ;
#239 = AXIS2_PLACEMENT_3D ( 'NONE', #211, #185, #212 ) ;
#240 = DIRECTION ( 'NONE',  ( -3.491481338843133355E-15, 1.030643345817079849E-16, -1.000000000000000000 ) ) ;
#241 = APPLICATION_PROTOCOL_DEFINITION ( 'international standard', 'config_control_design', 1994, #175 ) ;
#242 = CARTESIAN_POINT ( 'NONE',  ( 3.505447264198505636E-13, 2.999999999999985789, 100.4000000000000057 ) ) ;
#243 = VERTEX_POINT ( 'NONE', #169 ) ;
ENDSEC;
END-ISO-10303-21;
