ISO-10303-21;
HEADER;
FILE_DESCRIPTION (( 'STEP AP203' ),
    '1' );
FILE_NAME ('341800.step',
    '2021-11-26T06:52:56',
    ( '' ),
    ( '' ),
    'SwSTEP 2.0',
    'SolidWorks 2019',
    '' );
FILE_SCHEMA (( 'CONFIG_CONTROL_DESIGN' ));
ENDSEC;

DATA;
#1 = ORIENTED_EDGE ( 'NONE', *, *, #68, .T. ) ;
#2 = AXIS2_PLACEMENT_3D ( 'NONE', #211, #57, #54 ) ;
#3 = DIRECTION ( 'NONE',  ( 0.0000000000000000000, 1.000000000000000000, 0.0000000000000000000 ) ) ;
#4 = FACE_OUTER_BOUND ( 'NONE', #65, .T. ) ;
#5 = FACE_OUTER_BOUND ( 'NONE', #187, .T. ) ;
#6 = CARTESIAN_POINT ( 'NONE',  ( 0.0000000000000000000, 0.0000000000000000000, 0.0000000000000000000 ) ) ;
#7 = PLANE ( 'NONE',  #64 ) ;
#8 = PRODUCT ( '341800', '341800', '', ( #239 ) ) ;
#9 = FACE_OUTER_BOUND ( 'NONE', #112, .T. ) ;
#10 = DIRECTION ( 'NONE',  ( -1.733270732821341217E-30, 1.000000000000000000, -4.964284682087524179E-16 ) ) ;
#11 = APPROVAL_STATUS ( 'not_yet_approved' ) ;
#12 = DATE_AND_TIME ( #62, #243 ) ;
#13 =( NAMED_UNIT ( * ) PLANE_ANGLE_UNIT ( ) SI_UNIT ( $, .RADIAN. ) );
#14 = PERSON_AND_ORGANIZATION_ROLE ( 'creator' ) ;
#15 = AXIS2_PLACEMENT_3D ( 'NONE', #235, #56, #141 ) ;
#16 = EDGE_LOOP ( 'NONE', ( #129 ) ) ;
#17 = EDGE_LOOP ( 'NONE', ( #52 ) ) ;
#18 = DIRECTION ( 'NONE',  ( 3.598472008923184252E-31, 1.000000000000000000, 1.030643345817079726E-16 ) ) ;
#19 = EDGE_CURVE ( 'NONE', #41, #41, #195, .T. ) ;
#20 = FACE_OUTER_BOUND ( 'NONE', #35, .T. ) ;
#21 = FACE_BOUND ( 'NONE', #188, .T. ) ;
#22 = FACE_OUTER_BOUND ( 'NONE', #16, .T. ) ;
#23 = DIRECTION ( 'NONE',  ( 1.733270732821341217E-30, -1.000000000000000000, 4.964284682087525165E-16 ) ) ;
#24 = VERTEX_POINT ( 'NONE', #125 ) ;
#25 = APPLICATION_PROTOCOL_DEFINITION ( 'international standard', 'config_control_design', 1994, #139 ) ;
#26 = AXIS2_PLACEMENT_3D ( 'NONE', #6, #117, #70 ) ;
#27 = ADVANCED_FACE ( 'NONE', ( #4 ), #67, .T. ) ;
#28 = COORDINATED_UNIVERSAL_TIME_OFFSET ( 1, 0, .AHEAD. ) ;
#29 = APPROVAL_STATUS ( 'not_yet_approved' ) ;
#30 = PERSON_AND_ORGANIZATION_ROLE ( 'classification_officer' ) ;
#31 = CC_DESIGN_APPROVAL ( #121, ( #209 ) ) ;
#32 = ORIENTED_EDGE ( 'NONE', *, *, #153, .F. ) ;
#33 = CC_DESIGN_DATE_AND_TIME_ASSIGNMENT ( #77, #80, ( #209 ) ) ;
#34 = ORIENTED_EDGE ( 'NONE', *, *, #214, .T. ) ;
#35 = EDGE_LOOP ( 'NONE', ( #1 ) ) ;
#36 = PLANE ( 'NONE',  #167 ) ;
#37 = CONICAL_SURFACE ( 'NONE', #83, 3.524059892324148624, 0.5235987755982978165 ) ;
#38 = DIRECTION ( 'NONE',  ( 3.491481338843133355E-15, 4.964284682087525165E-16, 1.000000000000000000 ) ) ;
#39 = DIRECTION ( 'NONE',  ( -3.491481338843133355E-15, 1.030643345817079849E-16, -1.000000000000000000 ) ) ;
#40 = EDGE_CURVE ( 'NONE', #164, #164, #106, .T. ) ;
#41 = VERTEX_POINT ( 'NONE', #100 ) ;
#42 = CARTESIAN_POINT ( 'NONE',  ( 1.396592535537253145E-15, 3.754999999999998561, 0.3999999999999999667 ) ) ;
#43 = PERSON_AND_ORGANIZATION ( #71, #133 ) ;
#44 = CIRCLE ( 'NONE', #2, 3.754999999999989679 ) ;
#45 = SHAPE_DEFINITION_REPRESENTATION ( #140, #110 ) ;
#46 = MANIFOLD_SOLID_BREP ( 'Corps-Déplacer/Copier1[1]', #66 ) ;
#47 = SECURITY_CLASSIFICATION_LEVEL ( 'unclassified' ) ;
#48 = ADVANCED_FACE ( 'NONE', ( #180 ), #36, .T. ) ;
#49 = ORIENTED_EDGE ( 'NONE', *, *, #146, .F. ) ;
#50 = ORIENTED_EDGE ( 'NONE', *, *, #146, .T. ) ;
#51 = ADVANCED_FACE ( 'NONE', ( #190, #236 ), #37, .T. ) ;
#52 = ORIENTED_EDGE ( 'NONE', *, *, #68, .F. ) ;
#53 = DIRECTION ( 'NONE',  ( 3.491481338843133355E-15, 4.964284682087525165E-16, 1.000000000000000000 ) ) ;
#54 = DIRECTION ( 'NONE',  ( -3.282543713469598541E-30, 1.000000000000000000, -9.239539153005655114E-16 ) ) ;
#55 = CARTESIAN_POINT ( 'NONE',  ( 1.396592535537259653E-15, 1.985713872835018941E-16, 0.4000000000000017986 ) ) ;
#56 = DIRECTION ( 'NONE',  ( -3.491481338843133355E-15, -4.964284682087525165E-16, -1.000000000000000000 ) ) ;
#57 = DIRECTION ( 'NONE',  ( -3.491481338843133355E-15, -4.964284682087525165E-16, -1.000000000000000000 ) ) ;
#58 = CONICAL_SURFACE ( 'NONE', #208, 2.999999999999996003, 0.7853981633974453924 ) ;
#59 = SECURITY_CLASSIFICATION ( '', '', #47 ) ;
#60 = VERTEX_POINT ( 'NONE', #184 ) ;
#61 = AXIS2_PLACEMENT_3D ( 'NONE', #96, #155, #115 ) ;
#62 = CALENDAR_DATE ( 2021, 26, 11 ) ;
#63 = APPROVAL_ROLE ( '' ) ;
#64 = AXIS2_PLACEMENT_3D ( 'NONE', #231, #88, #175 ) ;
#65 = EDGE_LOOP ( 'NONE', ( #207 ) ) ;
#66 = CLOSED_SHELL ( 'NONE', ( #170, #101, #160, #232, #48 ) ) ;
#67 = PLANE ( 'NONE',  #73 ) ;
#68 = EDGE_CURVE ( 'NONE', #24, #24, #143, .T. ) ;
#69 = DIRECTION ( 'NONE',  ( 3.598472008923184252E-31, 1.000000000000000000, 1.030643345817079849E-16 ) ) ;
#70 = DIRECTION ( 'NONE',  ( -1.733270732821341567E-30, 1.000000000000000000, -4.964284682087524179E-16 ) ) ;
#71 = PERSON ( 'UNSPECIFIED', 'UNSPECIFIED', 'UNSPECIFIED', ('UNSPECIFIED'), ('UNSPECIFIED'), ('UNSPECIFIED') ) ;
#72 = FACE_OUTER_BOUND ( 'NONE', #169, .T. ) ;
#73 = AXIS2_PLACEMENT_3D ( 'NONE', #93, #53, #23 ) ;
#74 = CC_DESIGN_PERSON_AND_ORGANIZATION_ASSIGNMENT ( #168, #200, ( #8 ) ) ;
#75 = PLANE ( 'NONE',  #15 ) ;
#76 = DIRECTION ( 'NONE',  ( -3.491481338843133355E-15, -4.964284682087525165E-16, -1.000000000000000000 ) ) ;
#77 = DATE_AND_TIME ( #181, #158 ) ;
#78 = PERSON_AND_ORGANIZATION ( #71, #133 ) ;
#79 = CALENDAR_DATE ( 2021, 26, 11 ) ;
#80 = DATE_TIME_ROLE ( 'creation_date' ) ;
#81 = EDGE_LOOP ( 'NONE', ( #229 ) ) ;
#82 = ORIENTED_EDGE ( 'NONE', *, *, #40, .T. ) ;
#83 = AXIS2_PLACEMENT_3D ( 'NONE', #154, #38, #137 ) ;
#84 = EDGE_LOOP ( 'NONE', ( #82 ) ) ;
#85 = DESIGN_CONTEXT ( 'detailed design', #139, 'design' ) ;
#86 = EDGE_LOOP ( 'NONE', ( #130 ) ) ;
#87 = AXIS2_PLACEMENT_3D ( 'NONE', #230, #210, #10 ) ;
#88 = DIRECTION ( 'NONE',  ( 3.491481338843133355E-15, -1.030643345817079849E-16, 1.000000000000000000 ) ) ;
#89 = APPROVAL_PERSON_ORGANIZATION ( #242, #212, #145 ) ;
#90 = CYLINDRICAL_SURFACE ( 'NONE', #123, 2.999999999999993339 ) ;
#91 = PERSON_AND_ORGANIZATION ( #71, #133 ) ;
#92 = CC_DESIGN_PERSON_AND_ORGANIZATION_ASSIGNMENT ( #108, #30, ( #59 ) ) ;
#93 = CARTESIAN_POINT ( 'NONE',  ( 5.825243353514936841E-14, 8.282492026398201367E-15, 16.68416006898971915 ) ) ;
#94 = DIRECTION ( 'NONE',  ( 0.0000000000000000000, 1.000000000000000000, 0.0000000000000000000 ) ) ;
#95 = AXIS2_PLACEMENT_3D ( 'NONE', #116, #118, #94 ) ;
#96 = CARTESIAN_POINT ( 'NONE',  ( 3.505447264198505636E-13, -1.034765919200348261E-14, 100.4000000000000057 ) ) ;
#97 = CC_DESIGN_DATE_AND_TIME_ASSIGNMENT ( #126, #98, ( #59 ) ) ;
#98 = DATE_TIME_ROLE ( 'classification_date' ) ;
#99 = COORDINATED_UNIVERSAL_TIME_OFFSET ( 1, 0, .AHEAD. ) ;
#100 = CARTESIAN_POINT ( 'NONE',  ( 6.281823795492844412E-14, 2.999999999999988010, 17.99185842870425489 ) ) ;
#101 = ADVANCED_FACE ( 'NONE', ( #21, #177 ), #58, .T. ) ;
#102 = APPROVAL_ROLE ( '' ) ;
#103 = APPROVAL_DATE_TIME ( #197, #121 ) ;
#104 = COORDINATED_UNIVERSAL_TIME_OFFSET ( 1, 0, .AHEAD. ) ;
#105 = CARTESIAN_POINT ( 'NONE',  ( 3.526396152231565067E-13, 2.399999999999985700, 101.0000000000000000 ) ) ;
#106 = CIRCLE ( 'NONE', #223, 3.754999999999998561 ) ;
#107 = AXIS2_PLACEMENT_3D ( 'NONE', #120, #219, #222 ) ;
#108 = PERSON_AND_ORGANIZATION ( #71, #133 ) ;
#109 = ORIENTED_EDGE ( 'NONE', *, *, #40, .F. ) ;
#110 = ADVANCED_BREP_SHAPE_REPRESENTATION ( '341800', ( #46, #218, #107 ), #204 ) ;
#111 = LOCAL_TIME ( 7, 52, 56.00000000000000000, #28 ) ;
#112 = EDGE_LOOP ( 'NONE', ( #50 ) ) ;
#113 = CC_DESIGN_PERSON_AND_ORGANIZATION_ASSIGNMENT ( #78, #220, ( #174 ) ) ;
#114 = DIRECTION ( 'NONE',  ( -3.491481338843133355E-15, 1.030643345817079849E-16, -1.000000000000000000 ) ) ;
#115 = DIRECTION ( 'NONE',  ( 0.0000000000000000000, 1.000000000000000000, 0.0000000000000000000 ) ) ;
#116 = CARTESIAN_POINT ( 'NONE',  ( 5.825243353514936841E-14, -1.719541855565128705E-15, 16.68416006898971915 ) ) ;
#117 = DIRECTION ( 'NONE',  ( -3.491481338843133355E-15, -4.964284682087525165E-16, -1.000000000000000000 ) ) ;
#118 = DIRECTION ( 'NONE',  ( -3.491481338843133355E-15, 1.030643345817079849E-16, -1.000000000000000000 ) ) ;
#119 = CONICAL_SURFACE ( 'NONE', #95, 3.754999999999999449, 0.5235987755982937086 ) ;
#120 = CARTESIAN_POINT ( 'NONE',  ( 0.0000000000000000000, 0.0000000000000000000, 0.0000000000000000000 ) ) ;
#121 = APPROVAL ( #29, 'UNSPECIFIED' ) ;
#122 = PERSON_AND_ORGANIZATION ( #71, #133 ) ;
#123 = AXIS2_PLACEMENT_3D ( 'NONE', #217, #39, #18 ) ;
#124 = VERTEX_POINT ( 'NONE', #163 ) ;
#125 = CARTESIAN_POINT ( 'NONE',  ( 3.505447264198505636E-13, 2.999999999999985789, 100.4000000000000057 ) ) ;
#126 = DATE_AND_TIME ( #226, #148 ) ;
#127 = PRODUCT_RELATED_PRODUCT_CATEGORY ( 'detail', '', ( #8 ) ) ;
#128 = CC_DESIGN_APPROVAL ( #132, ( #59 ) ) ;
#129 = ORIENTED_EDGE ( 'NONE', *, *, #161, .F. ) ;
#130 = ORIENTED_EDGE ( 'NONE', *, *, #19, .T. ) ;
#131 = CC_DESIGN_SECURITY_CLASSIFICATION ( #59, ( #174 ) ) ;
#132 = APPROVAL ( #151, 'UNSPECIFIED' ) ;
#133 = ORGANIZATION ( 'UNSPECIFIED', 'UNSPECIFIED', '' ) ;
#134 = EDGE_LOOP ( 'NONE', ( #32 ) ) ;
#135 = CARTESIAN_POINT ( 'NONE',  ( 5.825243353514936841E-14, -1.719541855565128705E-15, 16.68416006898971915 ) ) ;
#136 = CLOSED_SHELL ( 'NONE', ( #27, #193, #51, #241 ) ) ;
#137 = DIRECTION ( 'NONE',  ( 1.733270732821340866E-30, -1.000000000000000000, 4.964284682087524179E-16 ) ) ;
#138 = DIRECTION ( 'NONE',  ( -3.491481338843133355E-15, 1.030643345817079849E-16, -1.000000000000000000 ) ) ;
#139 = APPLICATION_CONTEXT ( 'configuration controlled 3d designs of mechanical parts and assemblies' ) ;
#140 = PRODUCT_DEFINITION_SHAPE ( 'NONE', 'NONE',  #209 ) ;
#141 = DIRECTION ( 'NONE',  ( -1.733270732821341217E-30, 1.000000000000000000, -4.964284682087525165E-16 ) ) ;
#142 = FACE_BOUND ( 'NONE', #86, .T. ) ;
#143 = CIRCLE ( 'NONE', #61, 2.999999999999996003 ) ;
#144 = APPROVAL_DATE_TIME ( #12, #212 ) ;
#145 = APPROVAL_ROLE ( '' ) ;
#146 = EDGE_CURVE ( 'NONE', #60, #60, #203, .T. ) ;
#147 = VERTEX_POINT ( 'NONE', #105 ) ;
#148 = LOCAL_TIME ( 7, 52, 56.00000000000000000, #202 ) ;
#149 = VERTEX_POINT ( 'NONE', #185 ) ;
#150 = CALENDAR_DATE ( 2021, 26, 11 ) ;
#151 = APPROVAL_STATUS ( 'not_yet_approved' ) ;
#152 = APPROVAL_PERSON_ORGANIZATION ( #240, #121, #63 ) ;
#153 = EDGE_CURVE ( 'NONE', #147, #147, #156, .T. ) ;
#154 = CARTESIAN_POINT ( 'NONE',  ( 6.108149872074972844E-30, 8.684736334831377026E-31, 1.749443654222378210E-15 ) ) ;
#155 = DIRECTION ( 'NONE',  ( -3.491481338843133355E-15, 1.030643345817079849E-16, -1.000000000000000000 ) ) ;
#156 = CIRCLE ( 'NONE', #237, 2.399999999999996358 ) ;
#157 = CYLINDRICAL_SURFACE ( 'NONE', #26, 3.754999999999994120 ) ;
#158 = LOCAL_TIME ( 7, 52, 56.00000000000000000, #99 ) ;
#159 = CARTESIAN_POINT ( 'NONE',  ( 3.526396152231565067E-13, -1.040949779275250653E-14, 101.0000000000000000 ) ) ;
#160 = ADVANCED_FACE ( 'NONE', ( #20, #213 ), #90, .T. ) ;
#161 = EDGE_CURVE ( 'NONE', #149, #149, #227, .T. ) ;
#162 = DIRECTION ( 'NONE',  ( 0.0000000000000000000, 1.000000000000000000, 0.0000000000000000000 ) ) ;
#163 = CARTESIAN_POINT ( 'NONE',  ( 5.825243353514936841E-14, 3.754999999999998117, 16.68416006898971915 ) ) ;
#164 = VERTEX_POINT ( 'NONE', #42 ) ;
#165 =( NAMED_UNIT ( * ) SI_UNIT ( $, .STERADIAN. ) SOLID_ANGLE_UNIT ( ) );
#166 = APPLICATION_PROTOCOL_DEFINITION ( 'international standard', 'config_control_design', 1994, #221 ) ;
#167 = AXIS2_PLACEMENT_3D ( 'NONE', #194, #234, #69 ) ;
#168 = PERSON_AND_ORGANIZATION ( #71, #133 ) ;
#169 = EDGE_LOOP ( 'NONE', ( #109 ) ) ;
#170 = ADVANCED_FACE ( 'NONE', ( #178 ), #7, .T. ) ;
#171 = ORIENTED_EDGE ( 'NONE', *, *, #19, .F. ) ;
#172 = CARTESIAN_POINT ( 'NONE',  ( 6.281823795492844412E-14, -1.854318916842698141E-15, 17.99185842870425489 ) ) ;
#173 = DIRECTION ( 'NONE',  ( -3.491481338843133355E-15, 1.030643345817079849E-16, -1.000000000000000000 ) ) ;
#174 = PRODUCT_DEFINITION_FORMATION_WITH_SPECIFIED_SOURCE ( 'ANY', '', #8, .NOT_KNOWN. ) ;
#175 = DIRECTION ( 'NONE',  ( -3.598472008923184252E-31, -1.000000000000000000, -1.030643345817079849E-16 ) ) ;
#176 = DIRECTION ( 'NONE',  ( 0.0000000000000000000, 1.000000000000000000, 0.0000000000000000000 ) ) ;
#177 = FACE_OUTER_BOUND ( 'NONE', #17, .T. ) ;
#178 = FACE_OUTER_BOUND ( 'NONE', #134, .T. ) ;
#179 = CC_DESIGN_PERSON_AND_ORGANIZATION_ASSIGNMENT ( #43, #14, ( #209 ) ) ;
#180 = FACE_OUTER_BOUND ( 'NONE', #81, .T. ) ;
#181 = CALENDAR_DATE ( 2021, 26, 11 ) ;
#182 = COORDINATED_UNIVERSAL_TIME_OFFSET ( 1, 0, .AHEAD. ) ;
#183 = AXIS2_PLACEMENT_3D ( 'NONE', #135, #192, #176 ) ;
#184 = CARTESIAN_POINT ( 'NONE',  ( -6.842277657836020854E-46, 3.524059892324148624, 0.0000000000000000000 ) ) ;
#185 = CARTESIAN_POINT ( 'NONE',  ( 5.825243353514936841E-14, 3.754999999999998117, 16.68416006898971915 ) ) ;
#186 = CC_DESIGN_PERSON_AND_ORGANIZATION_ASSIGNMENT ( #122, #199, ( #174 ) ) ;
#187 = EDGE_LOOP ( 'NONE', ( #34 ) ) ;
#188 = EDGE_LOOP ( 'NONE', ( #205 ) ) ;
#189 = EDGE_LOOP ( 'NONE', ( #49 ) ) ;
#190 = FACE_OUTER_BOUND ( 'NONE', #84, .T. ) ;
#191 = CARTESIAN_POINT ( 'NONE',  ( 3.505447264198505636E-13, -1.034765919200348261E-14, 100.4000000000000057 ) ) ;
#192 = DIRECTION ( 'NONE',  ( -3.491481338843133355E-15, 1.030643345817079849E-16, -1.000000000000000000 ) ) ;
#193 = ADVANCED_FACE ( 'NONE', ( #5, #72 ), #157, .T. ) ;
#194 = CARTESIAN_POINT ( 'NONE',  ( 5.825243353514936841E-14, 3.754999999999998117, 16.68416006898971915 ) ) ;
#195 = CIRCLE ( 'NONE', #216, 2.999999999999989786 ) ;
#196 = DIRECTION ( 'NONE',  ( -1.743851347780720328E-30, 1.000000000000000000, -4.908505175034243309E-16 ) ) ;
#197 = DATE_AND_TIME ( #150, #111 ) ;
#198 =( LENGTH_UNIT ( ) NAMED_UNIT ( * ) SI_UNIT ( .MILLI., .METRE. ) );
#199 = PERSON_AND_ORGANIZATION_ROLE ( 'design_supplier' ) ;
#200 = PERSON_AND_ORGANIZATION_ROLE ( 'design_owner' ) ;
#201 = DATE_AND_TIME ( #79, #233 ) ;
#202 = COORDINATED_UNIVERSAL_TIME_OFFSET ( 1, 0, .AHEAD. ) ;
#203 = CIRCLE ( 'NONE', #87, 3.524059892324148624 ) ;
#204 =( GEOMETRIC_REPRESENTATION_CONTEXT ( 3 ) GLOBAL_UNCERTAINTY_ASSIGNED_CONTEXT ( ( #206 ) ) GLOBAL_UNIT_ASSIGNED_CONTEXT ( ( #198, #13, #165 ) ) REPRESENTATION_CONTEXT ( 'NONE', 'WORKASPACE' ) );
#205 = ORIENTED_EDGE ( 'NONE', *, *, #153, .T. ) ;
#206 = UNCERTAINTY_MEASURE_WITH_UNIT (LENGTH_MEASURE( 1.000000000000000082E-05 ), #198, 'distance_accuracy_value', 'NONE');
#207 = ORIENTED_EDGE ( 'NONE', *, *, #214, .F. ) ;
#208 = AXIS2_PLACEMENT_3D ( 'NONE', #191, #114, #162 ) ;
#209 = PRODUCT_DEFINITION ( 'UNKNOWN', '', #174, #85 ) ;
#210 = DIRECTION ( 'NONE',  ( -3.491481338843133355E-15, -4.964284682087525165E-16, -1.000000000000000000 ) ) ;
#211 = CARTESIAN_POINT ( 'NONE',  ( 5.825243353514938103E-14, 8.282492026398204523E-15, 16.68416006898972270 ) ) ;
#212 = APPROVAL ( #11, 'UNSPECIFIED' ) ;
#213 = FACE_OUTER_BOUND ( 'NONE', #228, .T. ) ;
#214 = EDGE_CURVE ( 'NONE', #124, #124, #44, .T. ) ;
#215 = DIRECTION ( 'NONE',  ( 0.0000000000000000000, 1.000000000000000000, 0.0000000000000000000 ) ) ;
#216 = AXIS2_PLACEMENT_3D ( 'NONE', #172, #173, #3 ) ;
#217 = CARTESIAN_POINT ( 'NONE',  ( 0.0000000000000000000, 0.0000000000000000000, 0.0000000000000000000 ) ) ;
#218 = MANIFOLD_SOLID_BREP ( 'Corps-Déplacer/Copier1[2]', #136 ) ;
#219 = DIRECTION ( 'NONE',  ( 0.0000000000000000000, 0.0000000000000000000, 1.000000000000000000 ) ) ;
#220 = PERSON_AND_ORGANIZATION_ROLE ( 'creator' ) ;
#221 = APPLICATION_CONTEXT ( 'configuration controlled 3d designs of mechanical parts and assemblies' ) ;
#222 = DIRECTION ( 'NONE',  ( 1.000000000000000000, 0.0000000000000000000, 0.0000000000000000000 ) ) ;
#223 = AXIS2_PLACEMENT_3D ( 'NONE', #55, #76, #196 ) ;
#224 = CC_DESIGN_APPROVAL ( #212, ( #174 ) ) ;
#225 = APPROVAL_DATE_TIME ( #201, #132 ) ;
#226 = CALENDAR_DATE ( 2021, 26, 11 ) ;
#227 = CIRCLE ( 'NONE', #183, 3.754999999999999449 ) ;
#228 = EDGE_LOOP ( 'NONE', ( #171 ) ) ;
#229 = ORIENTED_EDGE ( 'NONE', *, *, #161, .T. ) ;
#230 = CARTESIAN_POINT ( 'NONE',  ( 6.108149872074972844E-30, 8.684736334831377026E-31, 1.749443654222378210E-15 ) ) ;
#231 = CARTESIAN_POINT ( 'NONE',  ( 3.526396152231565067E-13, -1.040949779275250653E-14, 101.0000000000000000 ) ) ;
#232 = ADVANCED_FACE ( 'NONE', ( #142, #22 ), #119, .T. ) ;
#233 = LOCAL_TIME ( 7, 52, 56.00000000000000000, #104 ) ;
#234 = DIRECTION ( 'NONE',  ( -3.491481338843133355E-15, 1.030643345817079849E-16, -1.000000000000000000 ) ) ;
#235 = CARTESIAN_POINT ( 'NONE',  ( -3.054074936037486422E-30, 3.524059892324148624, -8.747218271111891052E-16 ) ) ;
#236 = FACE_BOUND ( 'NONE', #189, .T. ) ;
#237 = AXIS2_PLACEMENT_3D ( 'NONE', #159, #138, #215 ) ;
#238 = APPROVAL_PERSON_ORGANIZATION ( #91, #132, #102 ) ;
#239 = MECHANICAL_CONTEXT ( 'NONE', #221, 'mechanical' ) ;
#240 = PERSON_AND_ORGANIZATION ( #71, #133 ) ;
#241 = ADVANCED_FACE ( 'NONE', ( #9 ), #75, .T. ) ;
#242 = PERSON_AND_ORGANIZATION ( #71, #133 ) ;
#243 = LOCAL_TIME ( 7, 52, 56.00000000000000000, #182 ) ;
ENDSEC;
END-ISO-10303-21;
