ISO-10303-21;
HEADER;
FILE_DESCRIPTION (( 'STEP AP203' ),
    '1' );
FILE_NAME ('3418.step',
    '2021-12-06T12:58:53',
    ( '' ),
    ( '' ),
    'SwSTEP 2.0',
    'SolidWorks 2019',
    '' );
FILE_SCHEMA (( 'CONFIG_CONTROL_DESIGN' ));
ENDSEC;

DATA;
#1 = APPROVAL_STATUS ( 'not_yet_approved' ) ;
#2 = CARTESIAN_POINT ( 'NONE',  ( 0.0000000000000000000, 15.00000000000000000, 0.0000000000000000000 ) ) ;
#3 = APPROVAL ( #92, 'UNSPECIFIED' ) ;
#4 = DATE_TIME_ROLE ( 'classification_date' ) ;
#5 = CARTESIAN_POINT ( 'NONE',  ( 3.421138828918010427E-46, 4.000000000000000000, 0.0000000000000000000 ) ) ;
#6 = CARTESIAN_POINT ( 'NONE',  ( 0.0000000000000000000, 0.0000000000000000000, 0.0000000000000000000 ) ) ;
#7 = CIRCLE ( 'NONE', #73, 4.000000000000000000 ) ;
#8 = FACE_BOUND ( 'NONE', #125, .T. ) ;
#9 = FACE_OUTER_BOUND ( 'NONE', #150, .T. ) ;
#10 = DIRECTION ( 'NONE',  ( -3.491481338843133355E-15, 1.224646799147353207E-16, -1.000000000000000000 ) ) ;
#11 = APPROVAL_PERSON_ORGANIZATION ( #89, #58, #158 ) ;
#12 = ORIENTED_EDGE ( 'NONE', *, *, #127, .F. ) ;
#13 =( NAMED_UNIT ( * ) SI_UNIT ( $, .STERADIAN. ) SOLID_ANGLE_UNIT ( ) );
#14 = PERSON_AND_ORGANIZATION ( #153, #64 ) ;
#15 = CC_DESIGN_APPROVAL ( #162, ( #40 ) ) ;
#16 = MECHANICAL_CONTEXT ( 'NONE', #30, 'mechanical' ) ;
#17 = PERSON_AND_ORGANIZATION ( #153, #64 ) ;
#18 = PERSON_AND_ORGANIZATION_ROLE ( 'design_supplier' ) ;
#19 = DIRECTION ( 'NONE',  ( 4.275831445896958607E-31, 1.000000000000000000, 1.224646799147353207E-16 ) ) ;
#20 = FACE_OUTER_BOUND ( 'NONE', #59, .T. ) ;
#21 = CYLINDRICAL_SURFACE ( 'NONE', #122, 15.00000000000000000 ) ;
#22 = DIRECTION ( 'NONE',  ( -4.275831445896958607E-31, -1.000000000000000000, -1.224646799147353207E-16 ) ) ;
#23 = ADVANCED_FACE ( 'NONE', ( #166, #47 ), #60, .T. ) ;
#24 = EDGE_CURVE ( 'NONE', #34, #34, #128, .T. ) ;
#25 = PRODUCT_DEFINITION ( 'UNKNOWN', '', #88, #144 ) ;
#26 = EDGE_LOOP ( 'NONE', ( #39 ) ) ;
#27 = VERTEX_POINT ( 'NONE', #113 ) ;
#28 = ADVANCED_FACE ( 'NONE', ( #94, #45 ), #93, .F. ) ;
#29 = APPROVAL_ROLE ( '' ) ;
#30 = APPLICATION_CONTEXT ( 'configuration controlled 3d designs of mechanical parts and assemblies' ) ;
#31 = APPROVAL_DATE_TIME ( #104, #58 ) ;
#32 = CIRCLE ( 'NONE', #63, 4.000000000000000000 ) ;
#33 = PERSON_AND_ORGANIZATION ( #153, #64 ) ;
#34 = VERTEX_POINT ( 'NONE', #2 ) ;
#35 = CARTESIAN_POINT ( 'NONE',  ( 5.586370142149012580E-15, -1.959434878635764737E-16, 1.599999999999999645 ) ) ;
#36 = PRODUCT_RELATED_PRODUCT_CATEGORY ( 'detail', '', ( #163 ) ) ;
#37 = CARTESIAN_POINT ( 'NONE',  ( -1.710332578358783092E-30, 5.999039130647430431E-32, -4.898587196589412829E-16 ) ) ;
#38 = ORIENTED_EDGE ( 'NONE', *, *, #24, .F. ) ;
#39 = ORIENTED_EDGE ( 'NONE', *, *, #91, .F. ) ;
#40 = SECURITY_CLASSIFICATION ( '', '', #71 ) ;
#41 = ADVANCED_FACE ( 'NONE', ( #20, #8 ), #121, .T. ) ;
#42 = COORDINATED_UNIVERSAL_TIME_OFFSET ( 1, 0, .AHEAD. ) ;
#43 = APPLICATION_PROTOCOL_DEFINITION ( 'international standard', 'config_control_design', 1994, #79 ) ;
#44 = CLOSED_SHELL ( 'NONE', ( #41, #76, #23, #28 ) ) ;
#45 = FACE_OUTER_BOUND ( 'NONE', #26, .T. ) ;
#46 = PERSON_AND_ORGANIZATION ( #153, #64 ) ;
#47 = FACE_OUTER_BOUND ( 'NONE', #86, .T. ) ;
#48 = CC_DESIGN_PERSON_AND_ORGANIZATION_ASSIGNMENT ( #118, #65, ( #40 ) ) ;
#49 = APPROVAL_STATUS ( 'not_yet_approved' ) ;
#50 = CALENDAR_DATE ( 2021, 6, 12 ) ;
#51 = ADVANCED_BREP_SHAPE_REPRESENTATION ( '3418', ( #133, #123 ), #67 ) ;
#52 = PERSON_AND_ORGANIZATION ( #153, #64 ) ;
#53 = DATE_AND_TIME ( #161, #126 ) ;
#54 = CIRCLE ( 'NONE', #149, 15.00000000000000000 ) ;
#55 = DIRECTION ( 'NONE',  ( -3.491481338843133355E-15, 1.224646799147353207E-16, -1.000000000000000000 ) ) ;
#56 = CC_DESIGN_SECURITY_CLASSIFICATION ( #40, ( #88 ) ) ;
#57 = DIRECTION ( 'NONE',  ( 3.851859888774471706E-31, 1.000000000000000000, 1.084202172485504434E-16 ) ) ;
#58 = APPROVAL ( #1, 'UNSPECIFIED' ) ;
#59 = EDGE_LOOP ( 'NONE', ( #111 ) ) ;
#60 = PLANE ( 'NONE',  #135 ) ;
#61 = CC_DESIGN_PERSON_AND_ORGANIZATION_ASSIGNMENT ( #156, #130, ( #88 ) ) ;
#62 = CC_DESIGN_PERSON_AND_ORGANIZATION_ASSIGNMENT ( #33, #102, ( #163 ) ) ;
#63 = AXIS2_PLACEMENT_3D ( 'NONE', #35, #10, #57 ) ;
#64 = ORGANIZATION ( 'UNSPECIFIED', 'UNSPECIFIED', '' ) ;
#65 = PERSON_AND_ORGANIZATION_ROLE ( 'classification_officer' ) ;
#66 = DATE_AND_TIME ( #131, #160 ) ;
#67 =( GEOMETRIC_REPRESENTATION_CONTEXT ( 3 ) GLOBAL_UNCERTAINTY_ASSIGNED_CONTEXT ( ( #99 ) ) GLOBAL_UNIT_ASSIGNED_CONTEXT ( ( #82, #69, #13 ) ) REPRESENTATION_CONTEXT ( 'NONE', 'WORKASPACE' ) );
#68 = DATE_TIME_ROLE ( 'creation_date' ) ;
#69 =( NAMED_UNIT ( * ) PLANE_ANGLE_UNIT ( ) SI_UNIT ( $, .RADIAN. ) );
#70 = CC_DESIGN_PERSON_AND_ORGANIZATION_ASSIGNMENT ( #52, #136, ( #25 ) ) ;
#71 = SECURITY_CLASSIFICATION_LEVEL ( 'unclassified' ) ;
#72 = DIRECTION ( 'NONE',  ( -3.491481338843133355E-15, 1.224646799147353207E-16, -1.000000000000000000 ) ) ;
#73 = AXIS2_PLACEMENT_3D ( 'NONE', #37, #72, #155 ) ;
#74 = LOCAL_TIME ( 13, 58, 53.00000000000000000, #145 ) ;
#75 = DIRECTION ( 'NONE',  ( 4.275831445896958607E-31, 1.000000000000000000, 1.224646799147352961E-16 ) ) ;
#76 = ADVANCED_FACE ( 'NONE', ( #9, #140 ), #21, .T. ) ;
#77 = CC_DESIGN_PERSON_AND_ORGANIZATION_ASSIGNMENT ( #14, #18, ( #88 ) ) ;
#78 = COORDINATED_UNIVERSAL_TIME_OFFSET ( 1, 0, .AHEAD. ) ;
#79 = APPLICATION_CONTEXT ( 'configuration controlled 3d designs of mechanical parts and assemblies' ) ;
#80 = APPROVAL_ROLE ( '' ) ;
#81 = AXIS2_PLACEMENT_3D ( 'NONE', #97, #117, #75 ) ;
#82 =( LENGTH_UNIT ( ) NAMED_UNIT ( * ) SI_UNIT ( .MILLI., .METRE. ) );
#83 = DATE_AND_TIME ( #50, #120 ) ;
#84 = CARTESIAN_POINT ( 'NONE',  ( 5.586370142149014157E-15, 15.00000000000000000, 1.600000000000000089 ) ) ;
#85 = DIRECTION ( 'NONE',  ( -3.491481338843133355E-15, 1.224646799147353207E-16, -1.000000000000000000 ) ) ;
#86 = EDGE_LOOP ( 'NONE', ( #12 ) ) ;
#87 = EDGE_LOOP ( 'NONE', ( #38 ) ) ;
#88 = PRODUCT_DEFINITION_FORMATION_WITH_SPECIFIED_SOURCE ( 'ANY', '', #163, .NOT_KNOWN. ) ;
#89 = PERSON_AND_ORGANIZATION ( #153, #64 ) ;
#90 = SHAPE_DEFINITION_REPRESENTATION ( #108, #51 ) ;
#91 = EDGE_CURVE ( 'NONE', #27, #27, #32, .T. ) ;
#92 = APPROVAL_STATUS ( 'not_yet_approved' ) ;
#93 = CYLINDRICAL_SURFACE ( 'NONE', #154, 4.000000000000000000 ) ;
#94 = FACE_OUTER_BOUND ( 'NONE', #112, .T. ) ;
#95 = CC_DESIGN_APPROVAL ( #3, ( #88 ) ) ;
#96 = CARTESIAN_POINT ( 'NONE',  ( 0.0000000000000000000, 0.0000000000000000000, 0.0000000000000000000 ) ) ;
#97 = CARTESIAN_POINT ( 'NONE',  ( -6.413747168845438085E-30, 2.249639673992786193E-31, -1.836970198721029589E-15 ) ) ;
#98 = ORIENTED_EDGE ( 'NONE', *, *, #129, .T. ) ;
#99 = UNCERTAINTY_MEASURE_WITH_UNIT (LENGTH_MEASURE( 1.000000000000000082E-05 ), #82, 'distance_accuracy_value', 'NONE');
#100 = CC_DESIGN_DATE_AND_TIME_ASSIGNMENT ( #105, #4, ( #40 ) ) ;
#101 = CALENDAR_DATE ( 2021, 6, 12 ) ;
#102 = PERSON_AND_ORGANIZATION_ROLE ( 'design_owner' ) ;
#103 = VERTEX_POINT ( 'NONE', #84 ) ;
#104 = DATE_AND_TIME ( #101, #74 ) ;
#105 = DATE_AND_TIME ( #169, #132 ) ;
#106 = CARTESIAN_POINT ( 'NONE',  ( -2.351707295243326971E-30, 4.000000000000000000, -6.735557395310442023E-16 ) ) ;
#107 = DIRECTION ( 'NONE',  ( 4.275831445896958607E-31, 1.000000000000000000, 1.224646799147352961E-16 ) ) ;
#108 = PRODUCT_DEFINITION_SHAPE ( 'NONE', 'NONE',  #25 ) ;
#109 = APPROVAL_PERSON_ORGANIZATION ( #46, #3, #29 ) ;
#110 = DIRECTION ( 'NONE',  ( -3.491481338843133355E-15, 1.224646799147353207E-16, -1.000000000000000000 ) ) ;
#111 = ORIENTED_EDGE ( 'NONE', *, *, #24, .T. ) ;
#112 = EDGE_LOOP ( 'NONE', ( #98 ) ) ;
#113 = CARTESIAN_POINT ( 'NONE',  ( 5.586370142149014157E-15, 4.000000000000000000, 1.600000000000000089 ) ) ;
#114 = COORDINATED_UNIVERSAL_TIME_OFFSET ( 1, 0, .AHEAD. ) ;
#115 = APPROVAL_DATE_TIME ( #66, #162 ) ;
#116 = DIRECTION ( 'NONE',  ( 1.000000000000000000, 0.0000000000000000000, 0.0000000000000000000 ) ) ;
#117 = DIRECTION ( 'NONE',  ( -3.491481338843133355E-15, 1.224646799147353207E-16, -1.000000000000000000 ) ) ;
#118 = PERSON_AND_ORGANIZATION ( #153, #64 ) ;
#119 = DIRECTION ( 'NONE',  ( 4.275831445896958607E-31, 1.000000000000000000, 1.224646799147353207E-16 ) ) ;
#120 = LOCAL_TIME ( 13, 58, 53.00000000000000000, #159 ) ;
#121 = PLANE ( 'NONE',  #141 ) ;
#122 = AXIS2_PLACEMENT_3D ( 'NONE', #96, #55, #107 ) ;
#123 = AXIS2_PLACEMENT_3D ( 'NONE', #137, #157, #116 ) ;
#124 = EDGE_LOOP ( 'NONE', ( #142 ) ) ;
#125 = EDGE_LOOP ( 'NONE', ( #152 ) ) ;
#126 = LOCAL_TIME ( 13, 58, 53.00000000000000000, #78 ) ;
#127 = EDGE_CURVE ( 'NONE', #103, #103, #54, .T. ) ;
#128 = CIRCLE ( 'NONE', #81, 15.00000000000000000 ) ;
#129 = EDGE_CURVE ( 'NONE', #134, #134, #7, .T. ) ;
#130 = PERSON_AND_ORGANIZATION_ROLE ( 'creator' ) ;
#131 = CALENDAR_DATE ( 2021, 6, 12 ) ;
#132 = LOCAL_TIME ( 13, 58, 53.00000000000000000, #114 ) ;
#133 = MANIFOLD_SOLID_BREP ( 'Corps-Déplacer/Copier1', #44 ) ;
#134 = VERTEX_POINT ( 'NONE', #5 ) ;
#135 = AXIS2_PLACEMENT_3D ( 'NONE', #165, #167, #22 ) ;
#136 = PERSON_AND_ORGANIZATION_ROLE ( 'creator' ) ;
#137 = CARTESIAN_POINT ( 'NONE',  ( 0.0000000000000000000, 0.0000000000000000000, 0.0000000000000000000 ) ) ;
#138 = DIRECTION ( 'NONE',  ( -3.491481338843133355E-15, 1.224646799147353207E-16, -1.000000000000000000 ) ) ;
#139 = CC_DESIGN_DATE_AND_TIME_ASSIGNMENT ( #83, #68, ( #25 ) ) ;
#140 = FACE_OUTER_BOUND ( 'NONE', #87, .T. ) ;
#141 = AXIS2_PLACEMENT_3D ( 'NONE', #106, #138, #19 ) ;
#142 = ORIENTED_EDGE ( 'NONE', *, *, #91, .T. ) ;
#143 = ORIENTED_EDGE ( 'NONE', *, *, #127, .T. ) ;
#144 = DESIGN_CONTEXT ( 'detailed design', #79, 'design' ) ;
#145 = COORDINATED_UNIVERSAL_TIME_OFFSET ( 1, 0, .AHEAD. ) ;
#146 = APPROVAL_DATE_TIME ( #53, #3 ) ;
#147 = APPLICATION_PROTOCOL_DEFINITION ( 'international standard', 'config_control_design', 1994, #30 ) ;
#148 = CARTESIAN_POINT ( 'NONE',  ( 5.586370142149007846E-15, -1.959434878635763011E-16, 1.599999999999998312 ) ) ;
#149 = AXIS2_PLACEMENT_3D ( 'NONE', #148, #110, #164 ) ;
#150 = EDGE_LOOP ( 'NONE', ( #143 ) ) ;
#151 = CC_DESIGN_APPROVAL ( #58, ( #25 ) ) ;
#152 = ORIENTED_EDGE ( 'NONE', *, *, #129, .F. ) ;
#153 = PERSON ( 'UNSPECIFIED', 'UNSPECIFIED', 'UNSPECIFIED', ('UNSPECIFIED'), ('UNSPECIFIED'), ('UNSPECIFIED') ) ;
#154 = AXIS2_PLACEMENT_3D ( 'NONE', #6, #85, #119 ) ;
#155 = DIRECTION ( 'NONE',  ( 4.275831445896958607E-31, 1.000000000000000000, 1.224646799147353207E-16 ) ) ;
#156 = PERSON_AND_ORGANIZATION ( #153, #64 ) ;
#157 = DIRECTION ( 'NONE',  ( 0.0000000000000000000, 0.0000000000000000000, 1.000000000000000000 ) ) ;
#158 = APPROVAL_ROLE ( '' ) ;
#159 = COORDINATED_UNIVERSAL_TIME_OFFSET ( 1, 0, .AHEAD. ) ;
#160 = LOCAL_TIME ( 13, 58, 53.00000000000000000, #42 ) ;
#161 = CALENDAR_DATE ( 2021, 6, 12 ) ;
#162 = APPROVAL ( #49, 'UNSPECIFIED' ) ;
#163 = PRODUCT ( '3418', '3418', '', ( #16 ) ) ;
#164 = DIRECTION ( 'NONE',  ( 4.108650548026103445E-31, 1.000000000000000000, 1.156482317317871478E-16 ) ) ;
#165 = CARTESIAN_POINT ( 'NONE',  ( 5.586370142149011791E-15, 4.000000000000000000, 1.599999999999999423 ) ) ;
#166 = FACE_BOUND ( 'NONE', #124, .T. ) ;
#167 = DIRECTION ( 'NONE',  ( 3.491481338843133355E-15, -1.224646799147353207E-16, 1.000000000000000000 ) ) ;
#168 = APPROVAL_PERSON_ORGANIZATION ( #17, #162, #80 ) ;
#169 = CALENDAR_DATE ( 2021, 6, 12 ) ;
ENDSEC;
END-ISO-10303-21;
