ISO-10303-21;
HEADER;
FILE_DESCRIPTION (( 'STEP AP203' ),
    '1' );
FILE_NAME ('341790.step',
    '2021-11-26T06:52:56',
    ( '' ),
    ( '' ),
    'SwSTEP 2.0',
    'SolidWorks 2019',
    '' );
FILE_SCHEMA (( 'CONFIG_CONTROL_DESIGN' ));
ENDSEC;

DATA;
#1 = ORIENTED_EDGE ( 'NONE', *, *, #46, .T. ) ;
#2 =( LENGTH_UNIT ( ) NAMED_UNIT ( * ) SI_UNIT ( .MILLI., .METRE. ) );
#3 = AXIS2_PLACEMENT_3D ( 'NONE', #35, #18, #97 ) ;
#4 = APPLICATION_PROTOCOL_DEFINITION ( 'international standard', 'config_control_design', 1994, #30 ) ;
#5 = DATE_AND_TIME ( #102, #123 ) ;
#6 = PERSON_AND_ORGANIZATION_ROLE ( 'design_owner' ) ;
#7 = PERSON_AND_ORGANIZATION ( #124, #31 ) ;
#8 = PERSON_AND_ORGANIZATION ( #124, #31 ) ;
#9 = MANIFOLD_SOLID_BREP ( 'Corps-Déplacer/Copier1[2]', #37 ) ;
#10 = AXIS2_PLACEMENT_3D ( 'NONE', #174, #20, #41 ) ;
#11 = EDGE_LOOP ( 'NONE', ( #104 ) ) ;
#12 = CC_DESIGN_PERSON_AND_ORGANIZATION_ASSIGNMENT ( #8, #198, ( #116 ) ) ;
#13 =( GEOMETRIC_REPRESENTATION_CONTEXT ( 3 ) GLOBAL_UNCERTAINTY_ASSIGNED_CONTEXT ( ( #135 ) ) GLOBAL_UNIT_ASSIGNED_CONTEXT ( ( #2, #101, #103 ) ) REPRESENTATION_CONTEXT ( 'NONE', 'WORKASPACE' ) );
#14 = DIRECTION ( 'NONE',  ( -1.719904302985308708E-30, 1.000000000000000000, -4.926001705497247490E-16 ) ) ;
#15 = CARTESIAN_POINT ( 'NONE',  ( 3.526396152231565067E-13, -1.040949779275250653E-14, 101.0000000000000000 ) ) ;
#16 = ORIENTED_EDGE ( 'NONE', *, *, #111, .T. ) ;
#17 = ADVANCED_FACE ( 'NONE', ( #114, #108 ), #57, .T. ) ;
#18 = DIRECTION ( 'NONE',  ( -3.491481338843133355E-15, -4.926001705497247490E-16, -1.000000000000000000 ) ) ;
#19 = AXIS2_PLACEMENT_3D ( 'NONE', #152, #224, #188 ) ;
#20 = DIRECTION ( 'NONE',  ( -3.491481338843133355E-15, 1.030643345817079849E-16, -1.000000000000000000 ) ) ;
#21 = VERTEX_POINT ( 'NONE', #195 ) ;
#22 = APPROVAL_PERSON_ORGANIZATION ( #69, #136, #106 ) ;
#23 = VERTEX_POINT ( 'NONE', #175 ) ;
#24 = ADVANCED_FACE ( 'NONE', ( #169 ), #98, .T. ) ;
#25 = COORDINATED_UNIVERSAL_TIME_OFFSET ( 1, 0, .AHEAD. ) ;
#26 = CLOSED_SHELL ( 'NONE', ( #72, #109, #17, #161, #64 ) ) ;
#27 = DIRECTION ( 'NONE',  ( 0.0000000000000000000, 1.000000000000000000, 0.0000000000000000000 ) ) ;
#28 = LOCAL_TIME ( 7, 52, 56.00000000000000000, #68 ) ;
#29 = DATE_AND_TIME ( #148, #156 ) ;
#30 = APPLICATION_CONTEXT ( 'configuration controlled 3d designs of mechanical parts and assemblies' ) ;
#31 = ORGANIZATION ( 'UNSPECIFIED', 'UNSPECIFIED', '' ) ;
#32 = CALENDAR_DATE ( 2021, 26, 11 ) ;
#33 = ORIENTED_EDGE ( 'NONE', *, *, #179, .T. ) ;
#34 = EDGE_CURVE ( 'NONE', #21, #21, #118, .T. ) ;
#35 = CARTESIAN_POINT ( 'NONE',  ( 5.855480468877713147E-14, 8.261280521623706793E-15, 16.77076260936816965 ) ) ;
#36 = PRODUCT_RELATED_PRODUCT_CATEGORY ( 'detail', '', ( #142 ) ) ;
#37 = CLOSED_SHELL ( 'NONE', ( #128, #40, #43, #24 ) ) ;
#38 = DIRECTION ( 'NONE',  ( 3.491481338843133355E-15, 4.926001705497247490E-16, 1.000000000000000000 ) ) ;
#39 = DIRECTION ( 'NONE',  ( 3.491481338843133355E-15, 4.926001705497247490E-16, 1.000000000000000000 ) ) ;
#40 = ADVANCED_FACE ( 'NONE', ( #80, #77 ), #223, .T. ) ;
#41 = DIRECTION ( 'NONE',  ( 0.0000000000000000000, 1.000000000000000000, 0.0000000000000000000 ) ) ;
#42 = DIRECTION ( 'NONE',  ( 1.000000000000000000, 0.0000000000000000000, 0.0000000000000000000 ) ) ;
#43 = ADVANCED_FACE ( 'NONE', ( #59, #243 ), #157, .T. ) ;
#44 = DIRECTION ( 'NONE',  ( 0.0000000000000000000, 0.0000000000000000000, 1.000000000000000000 ) ) ;
#45 = PERSON_AND_ORGANIZATION_ROLE ( 'creator' ) ;
#46 = EDGE_CURVE ( 'NONE', #132, #132, #89, .T. ) ;
#47 = DIRECTION ( 'NONE',  ( 0.0000000000000000000, 1.000000000000000000, 0.0000000000000000000 ) ) ;
#48 = PERSON_AND_ORGANIZATION ( #124, #31 ) ;
#49 = ORIENTED_EDGE ( 'NONE', *, *, #52, .T. ) ;
#50 = CALENDAR_DATE ( 2021, 26, 11 ) ;
#51 = ORIENTED_EDGE ( 'NONE', *, *, #34, .F. ) ;
#52 = EDGE_CURVE ( 'NONE', #206, #206, #79, .T. ) ;
#53 = ORIENTED_EDGE ( 'NONE', *, *, #179, .F. ) ;
#54 = DIRECTION ( 'NONE',  ( 3.598472008923184252E-31, 1.000000000000000000, 1.030643345817079849E-16 ) ) ;
#55 = AXIS2_PLACEMENT_3D ( 'NONE', #96, #112, #151 ) ;
#56 = CARTESIAN_POINT ( 'NONE',  ( 5.975050557636980238E-30, 8.429977531286019459E-31, 1.711322495458833563E-15 ) ) ;
#57 = CYLINDRICAL_SURFACE ( 'NONE', #225, 2.999999999999993339 ) ;
#58 = DIRECTION ( 'NONE',  ( -3.491481338843133355E-15, -4.926001705497247490E-16, -1.000000000000000000 ) ) ;
#59 = FACE_OUTER_BOUND ( 'NONE', #149, .T. ) ;
#60 = APPROVAL_PERSON_ORGANIZATION ( #7, #240, #140 ) ;
#61 = FACE_OUTER_BOUND ( 'NONE', #94, .T. ) ;
#62 = FACE_BOUND ( 'NONE', #162, .T. ) ;
#63 = VERTEX_POINT ( 'NONE', #99 ) ;
#64 = ADVANCED_FACE ( 'NONE', ( #95 ), #202, .T. ) ;
#65 = CONICAL_SURFACE ( 'NONE', #196, 3.704999999999999627, 0.5235987755982935976 ) ;
#66 = DIRECTION ( 'NONE',  ( -3.491481338843133355E-15, 1.030643345817079849E-16, -1.000000000000000000 ) ) ;
#67 = CARTESIAN_POINT ( 'NONE',  ( 1.396592535537259653E-15, 1.970400682198908019E-16, 0.4000000000000017986 ) ) ;
#68 = COORDINATED_UNIVERSAL_TIME_OFFSET ( 1, 0, .AHEAD. ) ;
#69 = PERSON_AND_ORGANIZATION ( #124, #31 ) ;
#70 = EDGE_LOOP ( 'NONE', ( #53 ) ) ;
#71 = SECURITY_CLASSIFICATION_LEVEL ( 'unclassified' ) ;
#72 = ADVANCED_FACE ( 'NONE', ( #110 ), #74, .T. ) ;
#73 = EDGE_LOOP ( 'NONE', ( #122 ) ) ;
#74 = PLANE ( 'NONE',  #189 ) ;
#75 = CARTESIAN_POINT ( 'NONE',  ( -2.987525278818490119E-30, 3.474059892324147469, -8.556612477294167814E-16 ) ) ;
#76 = AXIS2_PLACEMENT_3D ( 'NONE', #56, #38, #186 ) ;
#77 = FACE_OUTER_BOUND ( 'NONE', #150, .T. ) ;
#78 = PLANE ( 'NONE',  #82 ) ;
#79 = CIRCLE ( 'NONE', #182, 2.399999999999996358 ) ;
#80 = FACE_OUTER_BOUND ( 'NONE', #183, .T. ) ;
#81 = PERSON_AND_ORGANIZATION ( #124, #31 ) ;
#82 = AXIS2_PLACEMENT_3D ( 'NONE', #204, #39, #113 ) ;
#83 = CARTESIAN_POINT ( 'NONE',  ( 3.505447264198505636E-13, 2.999999999999985789, 100.4000000000000057 ) ) ;
#84 = APPROVAL_DATE_TIME ( #5, #127 ) ;
#85 = SECURITY_CLASSIFICATION ( '', '', #71 ) ;
#86 = AXIS2_PLACEMENT_3D ( 'NONE', #126, #170, #54 ) ;
#87 = APPROVAL_ROLE ( '' ) ;
#88 = DATE_TIME_ROLE ( 'classification_date' ) ;
#89 = CIRCLE ( 'NONE', #191, 3.474059892324147469 ) ;
#90 = DATE_TIME_ROLE ( 'creation_date' ) ;
#91 = MANIFOLD_SOLID_BREP ( 'Corps-Déplacer/Copier1[1]', #26 ) ;
#92 = APPLICATION_CONTEXT ( 'configuration controlled 3d designs of mechanical parts and assemblies' ) ;
#93 = AXIS2_PLACEMENT_3D ( 'NONE', #75, #58, #125 ) ;
#94 = EDGE_LOOP ( 'NONE', ( #51 ) ) ;
#95 = FACE_OUTER_BOUND ( 'NONE', #141, .T. ) ;
#96 = CARTESIAN_POINT ( 'NONE',  ( 0.0000000000000000000, 0.0000000000000000000, 0.0000000000000000000 ) ) ;
#97 = DIRECTION ( 'NONE',  ( -3.326842549008999644E-30, 1.000000000000000000, -9.364229290023276172E-16 ) ) ;
#98 = PLANE ( 'NONE',  #93 ) ;
#99 = CARTESIAN_POINT ( 'NONE',  ( 5.855480468877711885E-14, 3.704999999999997851, 16.77076260936816610 ) ) ;
#100 = CONICAL_SURFACE ( 'NONE', #19, 2.999999999999996003, 0.7853981633974453924 ) ;
#101 =( NAMED_UNIT ( * ) PLANE_ANGLE_UNIT ( ) SI_UNIT ( $, .RADIAN. ) );
#102 = CALENDAR_DATE ( 2021, 26, 11 ) ;
#103 =( NAMED_UNIT ( * ) SI_UNIT ( $, .STERADIAN. ) SOLID_ANGLE_UNIT ( ) );
#104 = ORIENTED_EDGE ( 'NONE', *, *, #52, .F. ) ;
#105 = APPROVAL_STATUS ( 'not_yet_approved' ) ;
#106 = APPROVAL_ROLE ( '' ) ;
#107 = CC_DESIGN_APPROVAL ( #127, ( #167 ) ) ;
#108 = FACE_OUTER_BOUND ( 'NONE', #70, .T. ) ;
#109 = ADVANCED_FACE ( 'NONE', ( #201, #171 ), #100, .T. ) ;
#110 = FACE_OUTER_BOUND ( 'NONE', #11, .T. ) ;
#111 = EDGE_CURVE ( 'NONE', #63, #63, #190, .T. ) ;
#112 = DIRECTION ( 'NONE',  ( -3.491481338843133355E-15, -4.926001705497247490E-16, -1.000000000000000000 ) ) ;
#113 = DIRECTION ( 'NONE',  ( 1.719904302985308708E-30, -1.000000000000000000, 4.926001705497247490E-16 ) ) ;
#114 = FACE_OUTER_BOUND ( 'NONE', #238, .T. ) ;
#115 = DIRECTION ( 'NONE',  ( -1.715403189332761709E-30, 1.000000000000000000, -4.974746810324855298E-16 ) ) ;
#116 = PRODUCT_DEFINITION_FORMATION_WITH_SPECIFIED_SOURCE ( 'ANY', '', #142, .NOT_KNOWN. ) ;
#117 = CARTESIAN_POINT ( 'NONE',  ( 5.855480468877711885E-14, -1.728467488762318575E-15, 16.77076260936816610 ) ) ;
#118 = CIRCLE ( 'NONE', #10, 3.704999999999999627 ) ;
#119 = CC_DESIGN_SECURITY_CLASSIFICATION ( #85, ( #116 ) ) ;
#120 = SHAPE_DEFINITION_REPRESENTATION ( #237, #229 ) ;
#121 = ORIENTED_EDGE ( 'NONE', *, *, #219, .T. ) ;
#122 = ORIENTED_EDGE ( 'NONE', *, *, #111, .F. ) ;
#123 = LOCAL_TIME ( 7, 52, 56.00000000000000000, #25 ) ;
#124 = PERSON ( 'UNSPECIFIED', 'UNSPECIFIED', 'UNSPECIFIED', ('UNSPECIFIED'), ('UNSPECIFIED'), ('UNSPECIFIED') ) ;
#125 = DIRECTION ( 'NONE',  ( -1.719904302985308708E-30, 1.000000000000000000, -4.926001705497247490E-16 ) ) ;
#126 = CARTESIAN_POINT ( 'NONE',  ( 5.855480468877710622E-14, 3.704999999999997851, 16.77076260936816254 ) ) ;
#127 = APPROVAL ( #228, 'UNSPECIFIED' ) ;
#128 = ADVANCED_FACE ( 'NONE', ( #173 ), #78, .T. ) ;
#129 = DIRECTION ( 'NONE',  ( -3.598472008923184252E-31, -1.000000000000000000, -1.030643345817079849E-16 ) ) ;
#130 = CARTESIAN_POINT ( 'NONE',  ( 0.0000000000000000000, 0.0000000000000000000, 0.0000000000000000000 ) ) ;
#131 = DIRECTION ( 'NONE',  ( 0.0000000000000000000, 1.000000000000000000, 0.0000000000000000000 ) ) ;
#132 = VERTEX_POINT ( 'NONE', #194 ) ;
#133 = CARTESIAN_POINT ( 'NONE',  ( 0.0000000000000000000, 0.0000000000000000000, 0.0000000000000000000 ) ) ;
#134 = CIRCLE ( 'NONE', #168, 2.999999999999989786 ) ;
#135 = UNCERTAINTY_MEASURE_WITH_UNIT (LENGTH_MEASURE( 1.000000000000000082E-05 ), #2, 'distance_accuracy_value', 'NONE');
#136 = APPROVAL ( #105, 'UNSPECIFIED' ) ;
#137 = DIRECTION ( 'NONE',  ( -3.491481338843133355E-15, -4.926001705497247490E-16, -1.000000000000000000 ) ) ;
#138 = PERSON_AND_ORGANIZATION_ROLE ( 'creator' ) ;
#139 = ORIENTED_EDGE ( 'NONE', *, *, #219, .F. ) ;
#140 = APPROVAL_ROLE ( '' ) ;
#141 = EDGE_LOOP ( 'NONE', ( #216 ) ) ;
#142 = PRODUCT ( '341790', '341790', '', ( #231 ) ) ;
#143 = APPROVAL_STATUS ( 'not_yet_approved' ) ;
#144 = ORIENTED_EDGE ( 'NONE', *, *, #46, .F. ) ;
#145 = APPROVAL_DATE_TIME ( #213, #240 ) ;
#146 = EDGE_LOOP ( 'NONE', ( #144 ) ) ;
#147 = AXIS2_PLACEMENT_3D ( 'NONE', #133, #44, #42 ) ;
#148 = CALENDAR_DATE ( 2021, 26, 11 ) ;
#149 = EDGE_LOOP ( 'NONE', ( #121 ) ) ;
#150 = EDGE_LOOP ( 'NONE', ( #139 ) ) ;
#151 = DIRECTION ( 'NONE',  ( -1.719904302985308708E-30, 1.000000000000000000, -4.926001705497247490E-16 ) ) ;
#152 = CARTESIAN_POINT ( 'NONE',  ( 3.505447264198505636E-13, -1.034765919200348261E-14, 100.4000000000000057 ) ) ;
#153 = CARTESIAN_POINT ( 'NONE',  ( 3.526396152231565067E-13, -1.040949779275250653E-14, 101.0000000000000000 ) ) ;
#154 = EDGE_CURVE ( 'NONE', #207, #207, #172, .T. ) ;
#155 = DIRECTION ( 'NONE',  ( -3.491481338843133355E-15, -4.926001705497247490E-16, -1.000000000000000000 ) ) ;
#156 = LOCAL_TIME ( 7, 52, 56.00000000000000000, #236 ) ;
#157 = CONICAL_SURFACE ( 'NONE', #76, 3.474059892324147469, 0.5235987755982978165 ) ;
#158 = CARTESIAN_POINT ( 'NONE',  ( 6.281823795492844412E-14, 2.999999999999988010, 17.99185842870425489 ) ) ;
#159 = LOCAL_TIME ( 7, 52, 56.00000000000000000, #233 ) ;
#160 = CC_DESIGN_PERSON_AND_ORGANIZATION_ASSIGNMENT ( #209, #45, ( #167 ) ) ;
#161 = ADVANCED_FACE ( 'NONE', ( #62, #61 ), #65, .T. ) ;
#162 = EDGE_LOOP ( 'NONE', ( #33 ) ) ;
#163 = PERSON_AND_ORGANIZATION_ROLE ( 'classification_officer' ) ;
#164 = LOCAL_TIME ( 7, 52, 56.00000000000000000, #197 ) ;
#165 = DATE_AND_TIME ( #234, #159 ) ;
#166 = CC_DESIGN_DATE_AND_TIME_ASSIGNMENT ( #29, #88, ( #85 ) ) ;
#167 = PRODUCT_DEFINITION ( 'UNKNOWN', '', #116, #180 ) ;
#168 = AXIS2_PLACEMENT_3D ( 'NONE', #210, #193, #27 ) ;
#169 = FACE_OUTER_BOUND ( 'NONE', #203, .T. ) ;
#170 = DIRECTION ( 'NONE',  ( -3.491481338843133355E-15, 1.030643345817079849E-16, -1.000000000000000000 ) ) ;
#171 = FACE_OUTER_BOUND ( 'NONE', #220, .T. ) ;
#172 = CIRCLE ( 'NONE', #212, 2.999999999999996003 ) ;
#173 = FACE_OUTER_BOUND ( 'NONE', #73, .T. ) ;
#174 = CARTESIAN_POINT ( 'NONE',  ( 5.855480468877711885E-14, -1.728467488762318575E-15, 16.77076260936816610 ) ) ;
#175 = CARTESIAN_POINT ( 'NONE',  ( 1.396592535537253342E-15, 3.704999999999997407, 0.3999999999999999667 ) ) ;
#176 = CC_DESIGN_APPROVAL ( #136, ( #85 ) ) ;
#177 = CC_DESIGN_DATE_AND_TIME_ASSIGNMENT ( #165, #90, ( #167 ) ) ;
#178 = PERSON_AND_ORGANIZATION ( #124, #31 ) ;
#179 = EDGE_CURVE ( 'NONE', #208, #208, #134, .T. ) ;
#180 = DESIGN_CONTEXT ( 'detailed design', #30, 'design' ) ;
#181 = APPLICATION_PROTOCOL_DEFINITION ( 'international standard', 'config_control_design', 1994, #92 ) ;
#182 = AXIS2_PLACEMENT_3D ( 'NONE', #15, #241, #226 ) ;
#183 = EDGE_LOOP ( 'NONE', ( #16 ) ) ;
#184 = DATE_AND_TIME ( #50, #164 ) ;
#185 = CC_DESIGN_PERSON_AND_ORGANIZATION_ASSIGNMENT ( #215, #138, ( #116 ) ) ;
#186 = DIRECTION ( 'NONE',  ( 1.719904302985308357E-30, -1.000000000000000000, 4.926001705497247490E-16 ) ) ;
#187 = DIRECTION ( 'NONE',  ( 3.598472008923184252E-31, 1.000000000000000000, 1.030643345817079726E-16 ) ) ;
#188 = DIRECTION ( 'NONE',  ( 0.0000000000000000000, 1.000000000000000000, 0.0000000000000000000 ) ) ;
#189 = AXIS2_PLACEMENT_3D ( 'NONE', #153, #221, #129 ) ;
#190 = CIRCLE ( 'NONE', #3, 3.704999999999989413 ) ;
#191 = AXIS2_PLACEMENT_3D ( 'NONE', #239, #155, #14 ) ;
#192 = CARTESIAN_POINT ( 'NONE',  ( 3.505447264198505636E-13, -1.034765919200348261E-14, 100.4000000000000057 ) ) ;
#193 = DIRECTION ( 'NONE',  ( -3.491481338843133355E-15, 1.030643345817079849E-16, -1.000000000000000000 ) ) ;
#194 = CARTESIAN_POINT ( 'NONE',  ( 6.842277657836020854E-46, 3.474059892324147469, 0.0000000000000000000 ) ) ;
#195 = CARTESIAN_POINT ( 'NONE',  ( 5.855480468877711885E-14, 3.704999999999997851, 16.77076260936816610 ) ) ;
#196 = AXIS2_PLACEMENT_3D ( 'NONE', #117, #66, #131 ) ;
#197 = COORDINATED_UNIVERSAL_TIME_OFFSET ( 1, 0, .AHEAD. ) ;
#198 = PERSON_AND_ORGANIZATION_ROLE ( 'design_supplier' ) ;
#199 = CC_DESIGN_PERSON_AND_ORGANIZATION_ASSIGNMENT ( #178, #6, ( #142 ) ) ;
#200 = CC_DESIGN_APPROVAL ( #240, ( #116 ) ) ;
#201 = FACE_BOUND ( 'NONE', #242, .T. ) ;
#202 = PLANE ( 'NONE',  #86 ) ;
#203 = EDGE_LOOP ( 'NONE', ( #1 ) ) ;
#204 = CARTESIAN_POINT ( 'NONE',  ( 5.855480468877710622E-14, 8.261280521623702060E-15, 16.77076260936816254 ) ) ;
#205 = DIRECTION ( 'NONE',  ( -3.491481338843133355E-15, 1.030643345817079849E-16, -1.000000000000000000 ) ) ;
#206 = VERTEX_POINT ( 'NONE', #232 ) ;
#207 = VERTEX_POINT ( 'NONE', #83 ) ;
#208 = VERTEX_POINT ( 'NONE', #158 ) ;
#209 = PERSON_AND_ORGANIZATION ( #124, #31 ) ;
#210 = CARTESIAN_POINT ( 'NONE',  ( 6.281823795492844412E-14, -1.854318916842698141E-15, 17.99185842870425489 ) ) ;
#211 = CC_DESIGN_PERSON_AND_ORGANIZATION_ASSIGNMENT ( #48, #163, ( #85 ) ) ;
#212 = AXIS2_PLACEMENT_3D ( 'NONE', #192, #230, #47 ) ;
#213 = DATE_AND_TIME ( #32, #28 ) ;
#214 = ORIENTED_EDGE ( 'NONE', *, *, #154, .F. ) ;
#215 = PERSON_AND_ORGANIZATION ( #124, #31 ) ;
#216 = ORIENTED_EDGE ( 'NONE', *, *, #34, .T. ) ;
#217 = APPROVAL_DATE_TIME ( #184, #136 ) ;
#218 = AXIS2_PLACEMENT_3D ( 'NONE', #67, #137, #115 ) ;
#219 = EDGE_CURVE ( 'NONE', #23, #23, #235, .T. ) ;
#220 = EDGE_LOOP ( 'NONE', ( #214 ) ) ;
#221 = DIRECTION ( 'NONE',  ( 3.491481338843133355E-15, -1.030643345817079849E-16, 1.000000000000000000 ) ) ;
#222 = ORIENTED_EDGE ( 'NONE', *, *, #154, .T. ) ;
#223 = CYLINDRICAL_SURFACE ( 'NONE', #55, 3.704999999999993410 ) ;
#224 = DIRECTION ( 'NONE',  ( -3.491481338843133355E-15, 1.030643345817079849E-16, -1.000000000000000000 ) ) ;
#225 = AXIS2_PLACEMENT_3D ( 'NONE', #130, #205, #187 ) ;
#226 = DIRECTION ( 'NONE',  ( 0.0000000000000000000, 1.000000000000000000, 0.0000000000000000000 ) ) ;
#227 = APPROVAL_PERSON_ORGANIZATION ( #81, #127, #87 ) ;
#228 = APPROVAL_STATUS ( 'not_yet_approved' ) ;
#229 = ADVANCED_BREP_SHAPE_REPRESENTATION ( '341790', ( #91, #9, #147 ), #13 ) ;
#230 = DIRECTION ( 'NONE',  ( -3.491481338843133355E-15, 1.030643345817079849E-16, -1.000000000000000000 ) ) ;
#231 = MECHANICAL_CONTEXT ( 'NONE', #92, 'mechanical' ) ;
#232 = CARTESIAN_POINT ( 'NONE',  ( 3.526396152231565067E-13, 2.399999999999985700, 101.0000000000000000 ) ) ;
#233 = COORDINATED_UNIVERSAL_TIME_OFFSET ( 1, 0, .AHEAD. ) ;
#234 = CALENDAR_DATE ( 2021, 26, 11 ) ;
#235 = CIRCLE ( 'NONE', #218, 3.704999999999997407 ) ;
#236 = COORDINATED_UNIVERSAL_TIME_OFFSET ( 1, 0, .AHEAD. ) ;
#237 = PRODUCT_DEFINITION_SHAPE ( 'NONE', 'NONE',  #167 ) ;
#238 = EDGE_LOOP ( 'NONE', ( #222 ) ) ;
#239 = CARTESIAN_POINT ( 'NONE',  ( 5.975050557636980238E-30, 8.429977531286019459E-31, 1.711322495458833563E-15 ) ) ;
#240 = APPROVAL ( #143, 'UNSPECIFIED' ) ;
#241 = DIRECTION ( 'NONE',  ( -3.491481338843133355E-15, 1.030643345817079849E-16, -1.000000000000000000 ) ) ;
#242 = EDGE_LOOP ( 'NONE', ( #49 ) ) ;
#243 = FACE_BOUND ( 'NONE', #146, .T. ) ;
ENDSEC;
END-ISO-10303-21;
