ISO-10303-21;
HEADER;
FILE_DESCRIPTION (( 'STEP AP203' ),
    '1' );
FILE_NAME ('341780.step',
    '2021-11-26T06:52:55',
    ( '' ),
    ( '' ),
    'SwSTEP 2.0',
    'SolidWorks 2019',
    '' );
FILE_SCHEMA (( 'CONFIG_CONTROL_DESIGN' ));
ENDSEC;

DATA;
#1 = FACE_OUTER_BOUND ( 'NONE', #159, .T. ) ;
#2 = PERSON_AND_ORGANIZATION ( #142, #156 ) ;
#3 = DATE_AND_TIME ( #98, #176 ) ;
#4 = SECURITY_CLASSIFICATION ( '', '', #126 ) ;
#5 = ORIENTED_EDGE ( 'NONE', *, *, #85, .T. ) ;
#6 = ORIENTED_EDGE ( 'NONE', *, *, #147, .F. ) ;
#7 = CIRCLE ( 'NONE', #139, 2.999999999999996003 ) ;
#8 = CC_DESIGN_PERSON_AND_ORGANIZATION_ASSIGNMENT ( #63, #113, ( #173 ) ) ;
#9 = DIRECTION ( 'NONE',  ( -3.491481338843133355E-15, 1.030643345817079849E-16, -1.000000000000000000 ) ) ;
#10 = FACE_OUTER_BOUND ( 'NONE', #86, .T. ) ;
#11 = DIRECTION ( 'NONE',  ( -3.491481338843133355E-15, 1.030643345817079849E-16, -1.000000000000000000 ) ) ;
#12 = AXIS2_PLACEMENT_3D ( 'NONE', #77, #129, #205 ) ;
#13 = APPLICATION_PROTOCOL_DEFINITION ( 'international standard', 'config_control_design', 1994, #198 ) ;
#14 = APPROVAL_PERSON_ORGANIZATION ( #134, #174, #95 ) ;
#15 = DIRECTION ( 'NONE',  ( -1.686176695496350048E-30, 1.000000000000000000, -4.894483131603512272E-16 ) ) ;
#16 = DATE_TIME_ROLE ( 'classification_date' ) ;
#17 = COORDINATED_UNIVERSAL_TIME_OFFSET ( 1, 0, .AHEAD. ) ;
#18 = EDGE_CURVE ( 'NONE', #24, #24, #27, .T. ) ;
#19 = FACE_OUTER_BOUND ( 'NONE', #209, .T. ) ;
#20 = EDGE_LOOP ( 'NONE', ( #51 ) ) ;
#21 = CC_DESIGN_PERSON_AND_ORGANIZATION_ASSIGNMENT ( #239, #75, ( #4 ) ) ;
#22 = CIRCLE ( 'NONE', #62, 2.999999999999989786 ) ;
#23 =( LENGTH_UNIT ( ) NAMED_UNIT ( * ) SI_UNIT ( .MILLI., .METRE. ) );
#24 = VERTEX_POINT ( 'NONE', #120 ) ;
#25 = VERTEX_POINT ( 'NONE', #234 ) ;
#26 = DIRECTION ( 'NONE',  ( 1.706675209769713729E-30, -1.000000000000000000, 4.888112076621332295E-16 ) ) ;
#27 = CIRCLE ( 'NONE', #122, 3.654999999999989591 ) ;
#28 = CARTESIAN_POINT ( 'NONE',  ( 3.526396152231565067E-13, -1.040949779275250653E-14, 101.0000000000000000 ) ) ;
#29 = DIRECTION ( 'NONE',  ( 3.491481338843133355E-15, 4.888112076621332295E-16, 1.000000000000000000 ) ) ;
#30 = EDGE_CURVE ( 'NONE', #206, #206, #7, .T. ) ;
#31 = DIRECTION ( 'NONE',  ( 3.491481338843133355E-15, -1.030643345817079849E-16, 1.000000000000000000 ) ) ;
#32 = APPROVAL ( #135, 'UNSPECIFIED' ) ;
#33 = APPLICATION_PROTOCOL_DEFINITION ( 'international standard', 'config_control_design', 1994, #43 ) ;
#34 = MECHANICAL_CONTEXT ( 'NONE', #198, 'mechanical' ) ;
#35 = CARTESIAN_POINT ( 'NONE',  ( 6.281823795492844412E-14, 2.999999999999988010, 17.99185842870425489 ) ) ;
#36 = APPROVAL_PERSON_ORGANIZATION ( #169, #32, #97 ) ;
#37 =( NAMED_UNIT ( * ) PLANE_ANGLE_UNIT ( ) SI_UNIT ( $, .RADIAN. ) );
#38 = CARTESIAN_POINT ( 'NONE',  ( 0.0000000000000000000, 3.424059892324147647, 0.0000000000000000000 ) ) ;
#39 = EDGE_CURVE ( 'NONE', #149, #149, #42, .T. ) ;
#40 = CALENDAR_DATE ( 2021, 26, 11 ) ;
#41 = DIRECTION ( 'NONE',  ( 1.000000000000000000, 0.0000000000000000000, 0.0000000000000000000 ) ) ;
#42 = CIRCLE ( 'NONE', #151, 2.399999999999996358 ) ;
#43 = APPLICATION_CONTEXT ( 'configuration controlled 3d designs of mechanical parts and assemblies' ) ;
#44 = CC_DESIGN_DATE_AND_TIME_ASSIGNMENT ( #221, #110, ( #211 ) ) ;
#45 = DIRECTION ( 'NONE',  ( 3.598472008923184252E-31, 1.000000000000000000, 1.030643345817079849E-16 ) ) ;
#46 = AXIS2_PLACEMENT_3D ( 'NONE', #57, #155, #41 ) ;
#47 = FACE_OUTER_BOUND ( 'NONE', #166, .T. ) ;
#48 = APPROVAL ( #240, 'UNSPECIFIED' ) ;
#49 = FACE_OUTER_BOUND ( 'NONE', #92, .T. ) ;
#50 = EDGE_LOOP ( 'NONE', ( #146 ) ) ;
#51 = ORIENTED_EDGE ( 'NONE', *, *, #18, .T. ) ;
#52 = LOCAL_TIME ( 7, 52, 55.00000000000000000, #128 ) ;
#53 = PLANE ( 'NONE',  #208 ) ;
#54 = CC_DESIGN_DATE_AND_TIME_ASSIGNMENT ( #186, #16, ( #4 ) ) ;
#55 = PLANE ( 'NONE',  #141 ) ;
#56 = ADVANCED_FACE ( 'NONE', ( #121, #181 ), #90, .T. ) ;
#57 = CARTESIAN_POINT ( 'NONE',  ( 0.0000000000000000000, 0.0000000000000000000, 0.0000000000000000000 ) ) ;
#58 = DIRECTION ( 'NONE',  ( -3.491481338843133355E-15, -4.888112076621332295E-16, -1.000000000000000000 ) ) ;
#59 = SHAPE_DEFINITION_REPRESENTATION ( #99, #124 ) ;
#60 = APPROVAL_DATE_TIME ( #223, #174 ) ;
#61 = FACE_OUTER_BOUND ( 'NONE', #20, .T. ) ;
#62 = AXIS2_PLACEMENT_3D ( 'NONE', #229, #69, #89 ) ;
#63 = PERSON_AND_ORGANIZATION ( #142, #156 ) ;
#64 = APPROVAL_ROLE ( '' ) ;
#65 = ORIENTED_EDGE ( 'NONE', *, *, #147, .T. ) ;
#66 = PRODUCT_RELATED_PRODUCT_CATEGORY ( 'detail', '', ( #173 ) ) ;
#67 = EDGE_LOOP ( 'NONE', ( #136 ) ) ;
#68 = ORIENTED_EDGE ( 'NONE', *, *, #188, .T. ) ;
#69 = DIRECTION ( 'NONE',  ( -3.491481338843133355E-15, 1.030643345817079849E-16, -1.000000000000000000 ) ) ;
#70 = ORIENTED_EDGE ( 'NONE', *, *, #153, .T. ) ;
#71 = EDGE_LOOP ( 'NONE', ( #6 ) ) ;
#72 = CC_DESIGN_PERSON_AND_ORGANIZATION_ASSIGNMENT ( #184, #189, ( #227 ) ) ;
#73 = CARTESIAN_POINT ( 'NONE',  ( 3.505447264198505636E-13, -1.034765919200348261E-14, 100.4000000000000057 ) ) ;
#74 = CC_DESIGN_APPROVAL ( #32, ( #4 ) ) ;
#75 = PERSON_AND_ORGANIZATION_ROLE ( 'classification_officer' ) ;
#76 = COORDINATED_UNIVERSAL_TIME_OFFSET ( 1, 0, .AHEAD. ) ;
#77 = CARTESIAN_POINT ( 'NONE',  ( 5.885717584240488190E-14, -1.737393121959508446E-15, 16.85736514974660949 ) ) ;
#78 = CARTESIAN_POINT ( 'NONE',  ( 1.396592535537253342E-15, 3.654999999999997140, 0.3999999999999999667 ) ) ;
#79 = FACE_OUTER_BOUND ( 'NONE', #177, .T. ) ;
#80 = ADVANCED_FACE ( 'NONE', ( #143 ), #53, .T. ) ;
#81 = AXIS2_PLACEMENT_3D ( 'NONE', #235, #58, #111 ) ;
#82 = COORDINATED_UNIVERSAL_TIME_OFFSET ( 1, 0, .AHEAD. ) ;
#83 = ADVANCED_FACE ( 'NONE', ( #199 ), #125, .T. ) ;
#84 = CIRCLE ( 'NONE', #167, 3.654999999999997140 ) ;
#85 = EDGE_CURVE ( 'NONE', #132, #132, #192, .T. ) ;
#86 = EDGE_LOOP ( 'NONE', ( #116 ) ) ;
#87 = CARTESIAN_POINT ( 'NONE',  ( 5.843758134996378191E-30, 8.181325328805753321E-31, 1.673718851074440503E-15 ) ) ;
#88 = ORIENTED_EDGE ( 'NONE', *, *, #18, .F. ) ;
#89 = DIRECTION ( 'NONE',  ( 0.0000000000000000000, 1.000000000000000000, 0.0000000000000000000 ) ) ;
#90 = CYLINDRICAL_SURFACE ( 'NONE', #182, 2.999999999999993339 ) ;
#91 = CARTESIAN_POINT ( 'NONE',  ( 0.0000000000000000000, 0.0000000000000000000, 0.0000000000000000000 ) ) ;
#92 = EDGE_LOOP ( 'NONE', ( #70 ) ) ;
#93 = ADVANCED_FACE ( 'NONE', ( #212, #47 ), #238, .T. ) ;
#94 = CONICAL_SURFACE ( 'NONE', #237, 3.654999999999999361, 0.5235987755982934866 ) ;
#95 = APPROVAL_ROLE ( '' ) ;
#96 = CARTESIAN_POINT ( 'NONE',  ( 0.0000000000000000000, 0.0000000000000000000, 0.0000000000000000000 ) ) ;
#97 = APPROVAL_ROLE ( '' ) ;
#98 = CALENDAR_DATE ( 2021, 26, 11 ) ;
#99 = PRODUCT_DEFINITION_SHAPE ( 'NONE', 'NONE',  #211 ) ;
#100 = CONICAL_SURFACE ( 'NONE', #104, 3.424059892324147647, 0.5235987755982978165 ) ;
#101 = DESIGN_CONTEXT ( 'detailed design', #43, 'design' ) ;
#102 = DIRECTION ( 'NONE',  ( -3.491481338843133355E-15, 1.030643345817079849E-16, -1.000000000000000000 ) ) ;
#103 = ORIENTED_EDGE ( 'NONE', *, *, #30, .F. ) ;
#104 = AXIS2_PLACEMENT_3D ( 'NONE', #87, #232, #140 ) ;
#105 = PERSON_AND_ORGANIZATION ( #142, #156 ) ;
#106 = CALENDAR_DATE ( 2021, 26, 11 ) ;
#107 = CC_DESIGN_PERSON_AND_ORGANIZATION_ASSIGNMENT ( #2, #171, ( #227 ) ) ;
#108 = CC_DESIGN_APPROVAL ( #174, ( #227 ) ) ;
#109 = VERTEX_POINT ( 'NONE', #78 ) ;
#110 = DATE_TIME_ROLE ( 'creation_date' ) ;
#111 = DIRECTION ( 'NONE',  ( -1.706675209769713729E-30, 1.000000000000000000, -4.888112076621332295E-16 ) ) ;
#112 = ADVANCED_FACE ( 'NONE', ( #19 ), #195, .T. ) ;
#113 = PERSON_AND_ORGANIZATION_ROLE ( 'design_owner' ) ;
#114 = CLOSED_SHELL ( 'NONE', ( #219, #93, #56, #179, #112 ) ) ;
#115 = CARTESIAN_POINT ( 'NONE',  ( 5.885717584240489452E-14, 3.654999999999997584, 16.85736514974661304 ) ) ;
#116 = ORIENTED_EDGE ( 'NONE', *, *, #39, .F. ) ;
#117 = FACE_BOUND ( 'NONE', #228, .T. ) ;
#118 = DIRECTION ( 'NONE',  ( 0.0000000000000000000, 1.000000000000000000, 0.0000000000000000000 ) ) ;
#119 = CARTESIAN_POINT ( 'NONE',  ( 1.396592535537259456E-15, 1.955244830648541398E-16, 0.4000000000000017431 ) ) ;
#120 = CARTESIAN_POINT ( 'NONE',  ( 5.885717584240488190E-14, 3.654999999999997584, 16.85736514974660949 ) ) ;
#121 = FACE_OUTER_BOUND ( 'NONE', #67, .T. ) ;
#122 = AXIS2_PLACEMENT_3D ( 'NONE', #236, #180, #164 ) ;
#123 = DIRECTION ( 'NONE',  ( 0.0000000000000000000, 1.000000000000000000, 0.0000000000000000000 ) ) ;
#124 = ADVANCED_BREP_SHAPE_REPRESENTATION ( '341780', ( #175, #172, #46 ), #152 ) ;
#125 = PLANE ( 'NONE',  #81 ) ;
#126 = SECURITY_CLASSIFICATION_LEVEL ( 'unclassified' ) ;
#127 = APPROVAL_DATE_TIME ( #201, #48 ) ;
#128 = COORDINATED_UNIVERSAL_TIME_OFFSET ( 1, 0, .AHEAD. ) ;
#129 = DIRECTION ( 'NONE',  ( -3.491481338843133355E-15, 1.030643345817079849E-16, -1.000000000000000000 ) ) ;
#130 = ADVANCED_FACE ( 'NONE', ( #49, #117 ), #100, .T. ) ;
#131 = AXIS2_PLACEMENT_3D ( 'NONE', #165, #162, #118 ) ;
#132 = VERTEX_POINT ( 'NONE', #38 ) ;
#133 = DIRECTION ( 'NONE',  ( -1.706675209769713729E-30, 1.000000000000000000, -4.888112076621332295E-16 ) ) ;
#134 = PERSON_AND_ORGANIZATION ( #142, #156 ) ;
#135 = APPROVAL_STATUS ( 'not_yet_approved' ) ;
#136 = ORIENTED_EDGE ( 'NONE', *, *, #30, .T. ) ;
#137 = ORIENTED_EDGE ( 'NONE', *, *, #188, .F. ) ;
#138 = DIRECTION ( 'NONE',  ( -1.706675209769713729E-30, 1.000000000000000000, -4.888112076621332295E-16 ) ) ;
#139 = AXIS2_PLACEMENT_3D ( 'NONE', #73, #11, #161 ) ;
#140 = DIRECTION ( 'NONE',  ( 1.706675209769713729E-30, -1.000000000000000000, 4.888112076621332295E-16 ) ) ;
#141 = AXIS2_PLACEMENT_3D ( 'NONE', #28, #31, #196 ) ;
#142 = PERSON ( 'UNSPECIFIED', 'UNSPECIFIED', 'UNSPECIFIED', ('UNSPECIFIED'), ('UNSPECIFIED'), ('UNSPECIFIED') ) ;
#143 = FACE_OUTER_BOUND ( 'NONE', #215, .T. ) ;
#144 = DIRECTION ( 'NONE',  ( 3.598472008923184252E-31, 1.000000000000000000, 1.030643345817079726E-16 ) ) ;
#145 = LOCAL_TIME ( 7, 52, 55.00000000000000000, #17 ) ;
#146 = ORIENTED_EDGE ( 'NONE', *, *, #39, .T. ) ;
#147 = EDGE_CURVE ( 'NONE', #241, #241, #22, .T. ) ;
#148 = CALENDAR_DATE ( 2021, 26, 11 ) ;
#149 = VERTEX_POINT ( 'NONE', #203 ) ;
#150 = PERSON_AND_ORGANIZATION ( #142, #156 ) ;
#151 = AXIS2_PLACEMENT_3D ( 'NONE', #197, #102, #123 ) ;
#152 =( GEOMETRIC_REPRESENTATION_CONTEXT ( 3 ) GLOBAL_UNCERTAINTY_ASSIGNED_CONTEXT ( ( #191 ) ) GLOBAL_UNIT_ASSIGNED_CONTEXT ( ( #23, #37, #163 ) ) REPRESENTATION_CONTEXT ( 'NONE', 'WORKASPACE' ) );
#153 = EDGE_CURVE ( 'NONE', #109, #109, #84, .T. ) ;
#154 = CYLINDRICAL_SURFACE ( 'NONE', #193, 3.654999999999993143 ) ;
#155 = DIRECTION ( 'NONE',  ( 0.0000000000000000000, 0.0000000000000000000, 1.000000000000000000 ) ) ;
#156 = ORGANIZATION ( 'UNSPECIFIED', 'UNSPECIFIED', '' ) ;
#157 = ADVANCED_FACE ( 'NONE', ( #61, #1 ), #154, .T. ) ;
#158 = DIRECTION ( 'NONE',  ( -3.491481338843133355E-15, -4.888112076621332295E-16, -1.000000000000000000 ) ) ;
#159 = EDGE_LOOP ( 'NONE', ( #190 ) ) ;
#160 = CC_DESIGN_PERSON_AND_ORGANIZATION_ASSIGNMENT ( #150, #168, ( #211 ) ) ;
#161 = DIRECTION ( 'NONE',  ( 0.0000000000000000000, 1.000000000000000000, 0.0000000000000000000 ) ) ;
#162 = DIRECTION ( 'NONE',  ( -3.491481338843133355E-15, 1.030643345817079849E-16, -1.000000000000000000 ) ) ;
#163 =( NAMED_UNIT ( * ) SI_UNIT ( $, .STERADIAN. ) SOLID_ANGLE_UNIT ( ) );
#164 = DIRECTION ( 'NONE',  ( -3.372353390992707103E-30, 1.000000000000000000, -9.492330921897740193E-16 ) ) ;
#165 = CARTESIAN_POINT ( 'NONE',  ( 3.505447264198505636E-13, -1.034765919200348261E-14, 100.4000000000000057 ) ) ;
#166 = EDGE_LOOP ( 'NONE', ( #103 ) ) ;
#167 = AXIS2_PLACEMENT_3D ( 'NONE', #119, #194, #15 ) ;
#168 = PERSON_AND_ORGANIZATION_ROLE ( 'creator' ) ;
#169 = PERSON_AND_ORGANIZATION ( #142, #156 ) ;
#170 = DIRECTION ( 'NONE',  ( -3.491481338843133355E-15, -4.888112076621332295E-16, -1.000000000000000000 ) ) ;
#171 = PERSON_AND_ORGANIZATION_ROLE ( 'creator' ) ;
#172 = MANIFOLD_SOLID_BREP ( 'Corps-Déplacer/Copier1[2]', #220 ) ;
#173 = PRODUCT ( '341780', '341780', '', ( #34 ) ) ;
#174 = APPROVAL ( #202, 'UNSPECIFIED' ) ;
#175 = MANIFOLD_SOLID_BREP ( 'Corps-Déplacer/Copier1[1]', #114 ) ;
#176 = LOCAL_TIME ( 7, 52, 55.00000000000000000, #243 ) ;
#177 = EDGE_LOOP ( 'NONE', ( #137 ) ) ;
#178 = CARTESIAN_POINT ( 'NONE',  ( 5.843758134996378191E-30, 8.181325328805753321E-31, 1.673718851074440503E-15 ) ) ;
#179 = ADVANCED_FACE ( 'NONE', ( #242, #79 ), #94, .T. ) ;
#180 = DIRECTION ( 'NONE',  ( -3.491481338843133355E-15, -4.888112076621332295E-16, -1.000000000000000000 ) ) ;
#181 = FACE_OUTER_BOUND ( 'NONE', #71, .T. ) ;
#182 = AXIS2_PLACEMENT_3D ( 'NONE', #91, #218, #144 ) ;
#183 = APPROVAL_PERSON_ORGANIZATION ( #105, #48, #64 ) ;
#184 = PERSON_AND_ORGANIZATION ( #142, #156 ) ;
#185 = CC_DESIGN_APPROVAL ( #48, ( #211 ) ) ;
#186 = DATE_AND_TIME ( #106, #145 ) ;
#187 = CARTESIAN_POINT ( 'NONE',  ( 3.505447264198505636E-13, 2.999999999999985789, 100.4000000000000057 ) ) ;
#188 = EDGE_CURVE ( 'NONE', #25, #25, #225, .T. ) ;
#189 = PERSON_AND_ORGANIZATION_ROLE ( 'design_supplier' ) ;
#190 = ORIENTED_EDGE ( 'NONE', *, *, #153, .F. ) ;
#191 = UNCERTAINTY_MEASURE_WITH_UNIT (LENGTH_MEASURE( 1.000000000000000082E-05 ), #23, 'distance_accuracy_value', 'NONE');
#192 = CIRCLE ( 'NONE', #213, 3.424059892324147647 ) ;
#193 = AXIS2_PLACEMENT_3D ( 'NONE', #96, #170, #133 ) ;
#194 = DIRECTION ( 'NONE',  ( -3.491481338843133355E-15, -4.888112076621332295E-16, -1.000000000000000000 ) ) ;
#195 = PLANE ( 'NONE',  #231 ) ;
#196 = DIRECTION ( 'NONE',  ( -3.598472008923184252E-31, -1.000000000000000000, -1.030643345817079849E-16 ) ) ;
#197 = CARTESIAN_POINT ( 'NONE',  ( 3.526396152231565067E-13, -1.040949779275250653E-14, 101.0000000000000000 ) ) ;
#198 = APPLICATION_CONTEXT ( 'configuration controlled 3d designs of mechanical parts and assemblies' ) ;
#199 = FACE_OUTER_BOUND ( 'NONE', #233, .T. ) ;
#200 = DIRECTION ( 'NONE',  ( 0.0000000000000000000, 1.000000000000000000, 0.0000000000000000000 ) ) ;
#201 = DATE_AND_TIME ( #224, #214 ) ;
#202 = APPROVAL_STATUS ( 'not_yet_approved' ) ;
#203 = CARTESIAN_POINT ( 'NONE',  ( 3.526396152231565067E-13, 2.399999999999985700, 101.0000000000000000 ) ) ;
#204 = CC_DESIGN_SECURITY_CLASSIFICATION ( #4, ( #227 ) ) ;
#205 = DIRECTION ( 'NONE',  ( 0.0000000000000000000, 1.000000000000000000, 0.0000000000000000000 ) ) ;
#206 = VERTEX_POINT ( 'NONE', #187 ) ;
#207 = DIRECTION ( 'NONE',  ( -3.491481338843133355E-15, 1.030643345817079849E-16, -1.000000000000000000 ) ) ;
#208 = AXIS2_PLACEMENT_3D ( 'NONE', #216, #29, #26 ) ;
#209 = EDGE_LOOP ( 'NONE', ( #68 ) ) ;
#210 = EDGE_LOOP ( 'NONE', ( #65 ) ) ;
#211 = PRODUCT_DEFINITION ( 'UNKNOWN', '', #227, #101 ) ;
#212 = FACE_BOUND ( 'NONE', #50, .T. ) ;
#213 = AXIS2_PLACEMENT_3D ( 'NONE', #178, #158, #138 ) ;
#214 = LOCAL_TIME ( 7, 52, 55.00000000000000000, #76 ) ;
#215 = EDGE_LOOP ( 'NONE', ( #88 ) ) ;
#216 = CARTESIAN_POINT ( 'NONE',  ( 5.885717584240489452E-14, 8.240069016849199598E-15, 16.85736514974661304 ) ) ;
#217 = LOCAL_TIME ( 7, 52, 55.00000000000000000, #82 ) ;
#218 = DIRECTION ( 'NONE',  ( -3.491481338843133355E-15, 1.030643345817079849E-16, -1.000000000000000000 ) ) ;
#219 = ADVANCED_FACE ( 'NONE', ( #10 ), #55, .T. ) ;
#220 = CLOSED_SHELL ( 'NONE', ( #80, #157, #130, #83 ) ) ;
#221 = DATE_AND_TIME ( #148, #217 ) ;
#222 = APPROVAL_DATE_TIME ( #3, #32 ) ;
#223 = DATE_AND_TIME ( #40, #52 ) ;
#224 = CALENDAR_DATE ( 2021, 26, 11 ) ;
#225 = CIRCLE ( 'NONE', #12, 3.654999999999999361 ) ;
#226 = CARTESIAN_POINT ( 'NONE',  ( 5.885717584240488190E-14, -1.737393121959508446E-15, 16.85736514974660949 ) ) ;
#227 = PRODUCT_DEFINITION_FORMATION_WITH_SPECIFIED_SOURCE ( 'ANY', '', #173, .NOT_KNOWN. ) ;
#228 = EDGE_LOOP ( 'NONE', ( #230 ) ) ;
#229 = CARTESIAN_POINT ( 'NONE',  ( 6.281823795492844412E-14, -1.854318916842698141E-15, 17.99185842870425489 ) ) ;
#230 = ORIENTED_EDGE ( 'NONE', *, *, #85, .F. ) ;
#231 = AXIS2_PLACEMENT_3D ( 'NONE', #115, #9, #45 ) ;
#232 = DIRECTION ( 'NONE',  ( 3.491481338843133355E-15, 4.888112076621332295E-16, 1.000000000000000000 ) ) ;
#233 = EDGE_LOOP ( 'NONE', ( #5 ) ) ;
#234 = CARTESIAN_POINT ( 'NONE',  ( 5.885717584240488190E-14, 3.654999999999997584, 16.85736514974660949 ) ) ;
#235 = CARTESIAN_POINT ( 'NONE',  ( -2.921879067498189096E-30, 3.424059892324147647, -8.368594255372202515E-16 ) ) ;
#236 = CARTESIAN_POINT ( 'NONE',  ( 5.885717584240489452E-14, 8.240069016849199598E-15, 16.85736514974661304 ) ) ;
#237 = AXIS2_PLACEMENT_3D ( 'NONE', #226, #207, #200 ) ;
#238 = CONICAL_SURFACE ( 'NONE', #131, 2.999999999999996003, 0.7853981633974453924 ) ;
#239 = PERSON_AND_ORGANIZATION ( #142, #156 ) ;
#240 = APPROVAL_STATUS ( 'not_yet_approved' ) ;
#241 = VERTEX_POINT ( 'NONE', #35 ) ;
#242 = FACE_BOUND ( 'NONE', #210, .T. ) ;
#243 = COORDINATED_UNIVERSAL_TIME_OFFSET ( 1, 0, .AHEAD. ) ;
ENDSEC;
END-ISO-10303-21;
