ISO-10303-21;
HEADER;
FILE_DESCRIPTION (( 'STEP AP203' ),
    '1' );
FILE_NAME ('341770.step',
    '2021-11-26T06:52:55',
    ( '' ),
    ( '' ),
    'SwSTEP 2.0',
    'SolidWorks 2019',
    '' );
FILE_SCHEMA (( 'CONFIG_CONTROL_DESIGN' ));
ENDSEC;

DATA;
#1 = AXIS2_PLACEMENT_3D ( 'NONE', #120, #199, #162 ) ;
#2 = DIRECTION ( 'NONE',  ( -3.491481338843133355E-15, 1.030643345817079849E-16, -1.000000000000000000 ) ) ;
#3 = CALENDAR_DATE ( 2021, 26, 11 ) ;
#4 = DESIGN_CONTEXT ( 'detailed design', #9, 'design' ) ;
#5 = COORDINATED_UNIVERSAL_TIME_OFFSET ( 1, 0, .AHEAD. ) ;
#6 = APPROVAL_PERSON_ORGANIZATION ( #188, #59, #191 ) ;
#7 = EDGE_CURVE ( 'NONE', #110, #110, #84, .T. ) ;
#8 = CALENDAR_DATE ( 2021, 26, 11 ) ;
#9 = APPLICATION_CONTEXT ( 'configuration controlled 3d designs of mechanical parts and assemblies' ) ;
#10 = PRODUCT_RELATED_PRODUCT_CATEGORY ( 'detail', '', ( #134 ) ) ;
#11 = AXIS2_PLACEMENT_3D ( 'NONE', #51, #234, #180 ) ;
#12 = PERSON_AND_ORGANIZATION ( #196, #123 ) ;
#13 = CC_DESIGN_PERSON_AND_ORGANIZATION_ASSIGNMENT ( #209, #65, ( #32 ) ) ;
#14 = EDGE_LOOP ( 'NONE', ( #138 ) ) ;
#15 = CARTESIAN_POINT ( 'NONE',  ( 3.526396152231565067E-13, -1.040949779275250653E-14, 101.0000000000000000 ) ) ;
#16 = FACE_OUTER_BOUND ( 'NONE', #14, .T. ) ;
#17 = EDGE_CURVE ( 'NONE', #141, #141, #116, .T. ) ;
#18 = AXIS2_PLACEMENT_3D ( 'NONE', #102, #198, #177 ) ;
#19 = DIRECTION ( 'NONE',  ( 0.0000000000000000000, 1.000000000000000000, 0.0000000000000000000 ) ) ;
#20 = ORIENTED_EDGE ( 'NONE', *, *, #178, .T. ) ;
#21 = EDGE_LOOP ( 'NONE', ( #113 ) ) ;
#22 = CARTESIAN_POINT ( 'NONE',  ( 5.915954699603263233E-14, 3.604999999999997762, 16.94396769012505644 ) ) ;
#23 = DIRECTION ( 'NONE',  ( 1.000000000000000000, 0.0000000000000000000, 0.0000000000000000000 ) ) ;
#24 = VERTEX_POINT ( 'NONE', #92 ) ;
#25 = AXIS2_PLACEMENT_3D ( 'NONE', #166, #181, #242 ) ;
#26 = DIRECTION ( 'NONE',  ( 3.598472008923184252E-31, 1.000000000000000000, 1.030643345817079849E-16 ) ) ;
#27 = LOCAL_TIME ( 7, 52, 55.00000000000000000, #5 ) ;
#28 = CC_DESIGN_PERSON_AND_ORGANIZATION_ASSIGNMENT ( #192, #189, ( #228 ) ) ;
#29 =( NAMED_UNIT ( * ) PLANE_ANGLE_UNIT ( ) SI_UNIT ( $, .RADIAN. ) );
#30 = APPROVAL_ROLE ( '' ) ;
#31 = DATE_AND_TIME ( #3, #48 ) ;
#32 = PRODUCT_DEFINITION_FORMATION_WITH_SPECIFIED_SOURCE ( 'ANY', '', #134, .NOT_KNOWN. ) ;
#33 = EDGE_LOOP ( 'NONE', ( #148 ) ) ;
#34 = DATE_TIME_ROLE ( 'classification_date' ) ;
#35 = AXIS2_PLACEMENT_3D ( 'NONE', #139, #101, #175 ) ;
#36 = FACE_OUTER_BOUND ( 'NONE', #236, .T. ) ;
#37 = FACE_OUTER_BOUND ( 'NONE', #53, .T. ) ;
#38 = CIRCLE ( 'NONE', #69, 3.604999999999998206 ) ;
#39 = DIRECTION ( 'NONE',  ( -3.491481338843133355E-15, 1.030643345817079849E-16, -1.000000000000000000 ) ) ;
#40 = CARTESIAN_POINT ( 'NONE',  ( 6.281823795492844412E-14, -1.854318916842698141E-15, 17.99185842870425489 ) ) ;
#41 = VERTEX_POINT ( 'NONE', #22 ) ;
#42 = EDGE_LOOP ( 'NONE', ( #203 ) ) ;
#43 = CARTESIAN_POINT ( 'NONE',  ( 0.0000000000000000000, 3.374059892324148713, 0.0000000000000000000 ) ) ;
#44 = CC_DESIGN_PERSON_AND_ORGANIZATION_ASSIGNMENT ( #145, #63, ( #134 ) ) ;
#45 = APPLICATION_CONTEXT ( 'configuration controlled 3d designs of mechanical parts and assemblies' ) ;
#46 = APPROVAL_ROLE ( '' ) ;
#47 = CC_DESIGN_APPROVAL ( #59, ( #32 ) ) ;
#48 = LOCAL_TIME ( 7, 52, 55.00000000000000000, #168 ) ;
#49 = ADVANCED_FACE ( 'NONE', ( #16, #237 ), #73, .T. ) ;
#50 = APPROVAL_STATUS ( 'not_yet_approved' ) ;
#51 = CARTESIAN_POINT ( 'NONE',  ( 5.915954699603263233E-14, 8.218857512074703447E-15, 16.94396769012505999 ) ) ;
#52 = DIRECTION ( 'NONE',  ( -3.598472008923184252E-31, -1.000000000000000000, -1.030643345817079849E-16 ) ) ;
#53 = EDGE_LOOP ( 'NONE', ( #163 ) ) ;
#54 = FACE_OUTER_BOUND ( 'NONE', #42, .T. ) ;
#55 = LOCAL_TIME ( 7, 52, 55.00000000000000000, #80 ) ;
#56 = ADVANCED_FACE ( 'NONE', ( #36, #218 ), #106, .T. ) ;
#57 = CC_DESIGN_APPROVAL ( #66, ( #228 ) ) ;
#58 = CARTESIAN_POINT ( 'NONE',  ( 0.0000000000000000000, 0.0000000000000000000, 0.0000000000000000000 ) ) ;
#59 = APPROVAL ( #50, 'UNSPECIFIED' ) ;
#60 = CARTESIAN_POINT ( 'NONE',  ( 3.505447264198505636E-13, -1.034765919200348261E-14, 100.4000000000000057 ) ) ;
#61 = DIRECTION ( 'NONE',  ( -3.491481338843133355E-15, 1.030643345817079849E-16, -1.000000000000000000 ) ) ;
#62 = DIRECTION ( 'NONE',  ( 0.0000000000000000000, 0.0000000000000000000, 1.000000000000000000 ) ) ;
#63 = PERSON_AND_ORGANIZATION_ROLE ( 'design_owner' ) ;
#64 = ADVANCED_FACE ( 'NONE', ( #54 ), #217, .T. ) ;
#65 = PERSON_AND_ORGANIZATION_ROLE ( 'creator' ) ;
#66 = APPROVAL ( #146, 'UNSPECIFIED' ) ;
#67 = ADVANCED_FACE ( 'NONE', ( #124, #85 ), #173, .T. ) ;
#68 = PERSON_AND_ORGANIZATION ( #196, #123 ) ;
#69 = AXIS2_PLACEMENT_3D ( 'NONE', #127, #78, #184 ) ;
#70 = ADVANCED_FACE ( 'NONE', ( #140 ), #164, .T. ) ;
#71 = ORIENTED_EDGE ( 'NONE', *, *, #178, .F. ) ;
#72 = PLANE ( 'NONE',  #133 ) ;
#73 = CYLINDRICAL_SURFACE ( 'NONE', #111, 3.604999999999994209 ) ;
#74 = ORIENTED_EDGE ( 'NONE', *, *, #109, .F. ) ;
#75 = DIRECTION ( 'NONE',  ( -3.491481338843133355E-15, 1.030643345817079849E-16, -1.000000000000000000 ) ) ;
#76 = CARTESIAN_POINT ( 'NONE',  ( -2.857122449233263623E-30, 3.374059892324148713, -8.183123929225816856E-16 ) ) ;
#77 = AXIS2_PLACEMENT_3D ( 'NONE', #201, #39, #135 ) ;
#78 = DIRECTION ( 'NONE',  ( -3.491481338843133355E-15, -4.850609764125466226E-16, -1.000000000000000000 ) ) ;
#79 =( LENGTH_UNIT ( ) NAMED_UNIT ( * ) SI_UNIT ( .MILLI., .METRE. ) );
#80 = COORDINATED_UNIVERSAL_TIME_OFFSET ( 1, 0, .AHEAD. ) ;
#81 = CIRCLE ( 'NONE', #11, 3.604999999999989768 ) ;
#82 = DATE_AND_TIME ( #8, #214 ) ;
#83 = PRODUCT_DEFINITION ( 'UNKNOWN', '', #32, #4 ) ;
#84 = CIRCLE ( 'NONE', #77, 2.999999999999996003 ) ;
#85 = FACE_BOUND ( 'NONE', #33, .T. ) ;
#86 = PRODUCT_DEFINITION_SHAPE ( 'NONE', 'NONE',  #83 ) ;
#87 = DIRECTION ( 'NONE',  ( -3.491481338843133355E-15, -4.850609764125466226E-16, -1.000000000000000000 ) ) ;
#88 = PLANE ( 'NONE',  #136 ) ;
#89 = DIRECTION ( 'NONE',  ( 0.0000000000000000000, 1.000000000000000000, 0.0000000000000000000 ) ) ;
#90 = DIRECTION ( 'NONE',  ( -3.491481338843133355E-15, -4.850609764125466226E-16, -1.000000000000000000 ) ) ;
#91 = AXIS2_PLACEMENT_3D ( 'NONE', #182, #62, #23 ) ;
#92 = CARTESIAN_POINT ( 'NONE',  ( 6.281823795492844412E-14, 2.999999999999988010, 17.99185842870425489 ) ) ;
#93 = FACE_BOUND ( 'NONE', #156, .T. ) ;
#94 = DIRECTION ( 'NONE',  ( -1.693581347345435759E-30, 1.000000000000000000, -4.850609764125466226E-16 ) ) ;
#95 = AXIS2_PLACEMENT_3D ( 'NONE', #240, #129, #94 ) ;
#96 = MECHANICAL_CONTEXT ( 'NONE', #45, 'mechanical' ) ;
#97 = DATE_AND_TIME ( #170, #27 ) ;
#98 = PERSON_AND_ORGANIZATION_ROLE ( 'design_supplier' ) ;
#99 = EDGE_LOOP ( 'NONE', ( #179 ) ) ;
#100 = CIRCLE ( 'NONE', #167, 3.604999999999999538 ) ;
#101 = DIRECTION ( 'NONE',  ( -3.491481338843133355E-15, 1.030643345817079849E-16, -1.000000000000000000 ) ) ;
#102 = CARTESIAN_POINT ( 'NONE',  ( 5.714244898466527246E-30, 7.938628166430299615E-31, 1.636624785845163371E-15 ) ) ;
#103 = EDGE_CURVE ( 'NONE', #24, #24, #194, .T. ) ;
#104 = ORIENTED_EDGE ( 'NONE', *, *, #103, .T. ) ;
#105 = AXIS2_PLACEMENT_3D ( 'NONE', #40, #157, #107 ) ;
#106 = CYLINDRICAL_SURFACE ( 'NONE', #35, 2.999999999999993339 ) ;
#107 = DIRECTION ( 'NONE',  ( 0.0000000000000000000, 1.000000000000000000, 0.0000000000000000000 ) ) ;
#108 = FACE_OUTER_BOUND ( 'NONE', #121, .T. ) ;
#109 = EDGE_CURVE ( 'NONE', #41, #41, #81, .T. ) ;
#110 = VERTEX_POINT ( 'NONE', #204 ) ;
#111 = AXIS2_PLACEMENT_3D ( 'NONE', #58, #90, #119 ) ;
#112 = APPROVAL_STATUS ( 'not_yet_approved' ) ;
#113 = ORIENTED_EDGE ( 'NONE', *, *, #103, .F. ) ;
#114 = COORDINATED_UNIVERSAL_TIME_OFFSET ( 1, 0, .AHEAD. ) ;
#115 = DATE_TIME_ROLE ( 'creation_date' ) ;
#116 = CIRCLE ( 'NONE', #212, 2.399999999999996358 ) ;
#117 = PERSON_AND_ORGANIZATION ( #196, #123 ) ;
#118 = EDGE_LOOP ( 'NONE', ( #20 ) ) ;
#119 = DIRECTION ( 'NONE',  ( -1.693581347345435759E-30, 1.000000000000000000, -4.850609764125466226E-16 ) ) ;
#120 = CARTESIAN_POINT ( 'NONE',  ( 5.915954699603263233E-14, 8.218857512074703447E-15, 16.94396769012505999 ) ) ;
#121 = EDGE_LOOP ( 'NONE', ( #137 ) ) ;
#122 = CARTESIAN_POINT ( 'NONE',  ( 5.915954699603263233E-14, 3.604999999999997762, 16.94396769012505999 ) ) ;
#123 = ORGANIZATION ( 'UNSPECIFIED', 'UNSPECIFIED', '' ) ;
#124 = FACE_OUTER_BOUND ( 'NONE', #118, .T. ) ;
#125 = FACE_OUTER_BOUND ( 'NONE', #99, .T. ) ;
#126 = ADVANCED_BREP_SHAPE_REPRESENTATION ( '341770', ( #158, #241, #91 ), #232 ) ;
#127 = CARTESIAN_POINT ( 'NONE',  ( 1.396592535537259259E-15, 1.940243905650194724E-16, 0.4000000000000016875 ) ) ;
#128 = EDGE_CURVE ( 'NONE', #222, #222, #100, .T. ) ;
#129 = DIRECTION ( 'NONE',  ( -3.491481338843133355E-15, -4.850609764125466226E-16, -1.000000000000000000 ) ) ;
#130 = APPLICATION_PROTOCOL_DEFINITION ( 'international standard', 'config_control_design', 1994, #9 ) ;
#131 = CALENDAR_DATE ( 2021, 26, 11 ) ;
#132 = CALENDAR_DATE ( 2021, 26, 11 ) ;
#133 = AXIS2_PLACEMENT_3D ( 'NONE', #122, #2, #26 ) ;
#134 = PRODUCT ( '341770', '341770', '', ( #96 ) ) ;
#135 = DIRECTION ( 'NONE',  ( 0.0000000000000000000, 1.000000000000000000, 0.0000000000000000000 ) ) ;
#136 = AXIS2_PLACEMENT_3D ( 'NONE', #76, #87, #159 ) ;
#137 = ORIENTED_EDGE ( 'NONE', *, *, #128, .F. ) ;
#138 = ORIENTED_EDGE ( 'NONE', *, *, #109, .T. ) ;
#139 = CARTESIAN_POINT ( 'NONE',  ( 0.0000000000000000000, 0.0000000000000000000, 0.0000000000000000000 ) ) ;
#140 = FACE_OUTER_BOUND ( 'NONE', #176, .T. ) ;
#141 = VERTEX_POINT ( 'NONE', #183 ) ;
#142 = CARTESIAN_POINT ( 'NONE',  ( 1.396592535537253145E-15, 3.604999999999998206, 0.3999999999999999667 ) ) ;
#143 = AXIS2_PLACEMENT_3D ( 'NONE', #60, #61, #202 ) ;
#144 = APPROVAL ( #112, 'UNSPECIFIED' ) ;
#145 = PERSON_AND_ORGANIZATION ( #196, #123 ) ;
#146 = APPROVAL_STATUS ( 'not_yet_approved' ) ;
#147 = ADVANCED_FACE ( 'NONE', ( #37 ), #88, .T. ) ;
#148 = ORIENTED_EDGE ( 'NONE', *, *, #243, .F. ) ;
#149 = CLOSED_SHELL ( 'NONE', ( #64, #185, #56, #190, #169 ) ) ;
#150 = COORDINATED_UNIVERSAL_TIME_OFFSET ( 1, 0, .AHEAD. ) ;
#151 = ORIENTED_EDGE ( 'NONE', *, *, #7, .T. ) ;
#152 = DATE_AND_TIME ( #132, #221 ) ;
#153 = EDGE_LOOP ( 'NONE', ( #233 ) ) ;
#154 = CIRCLE ( 'NONE', #95, 3.374059892324148713 ) ;
#155 = APPROVAL_PERSON_ORGANIZATION ( #68, #66, #30 ) ;
#156 = EDGE_LOOP ( 'NONE', ( #104 ) ) ;
#157 = DIRECTION ( 'NONE',  ( -3.491481338843133355E-15, 1.030643345817079849E-16, -1.000000000000000000 ) ) ;
#158 = MANIFOLD_SOLID_BREP ( 'Corps-Déplacer/Copier1[1]', #149 ) ;
#159 = DIRECTION ( 'NONE',  ( -1.693581347345435759E-30, 1.000000000000000000, -4.850609764125466226E-16 ) ) ;
#160 = AXIS2_PLACEMENT_3D ( 'NONE', #15, #215, #52 ) ;
#161 = EDGE_LOOP ( 'NONE', ( #71 ) ) ;
#162 = DIRECTION ( 'NONE',  ( 1.693581347345435759E-30, -1.000000000000000000, 4.850609764125466226E-16 ) ) ;
#163 = ORIENTED_EDGE ( 'NONE', *, *, #243, .T. ) ;
#164 = PLANE ( 'NONE',  #1 ) ;
#165 = CONICAL_SURFACE ( 'NONE', #143, 2.999999999999996003, 0.7853981633974453924 ) ;
#166 = CARTESIAN_POINT ( 'NONE',  ( 5.915954699603261971E-14, -1.746318755156698317E-15, 16.94396769012505644 ) ) ;
#167 = AXIS2_PLACEMENT_3D ( 'NONE', #238, #197, #19 ) ;
#168 = COORDINATED_UNIVERSAL_TIME_OFFSET ( 1, 0, .AHEAD. ) ;
#169 = ADVANCED_FACE ( 'NONE', ( #235 ), #72, .T. ) ;
#170 = CALENDAR_DATE ( 2021, 26, 11 ) ;
#171 = CC_DESIGN_APPROVAL ( #144, ( #83 ) ) ;
#172 = CC_DESIGN_DATE_AND_TIME_ASSIGNMENT ( #97, #115, ( #83 ) ) ;
#173 = CONICAL_SURFACE ( 'NONE', #18, 3.374059892324148713, 0.5235987755982978165 ) ;
#174 = UNCERTAINTY_MEASURE_WITH_UNIT (LENGTH_MEASURE( 1.000000000000000082E-05 ), #79, 'distance_accuracy_value', 'NONE');
#175 = DIRECTION ( 'NONE',  ( 3.598472008923184252E-31, 1.000000000000000000, 1.030643345817079726E-16 ) ) ;
#176 = EDGE_LOOP ( 'NONE', ( #74 ) ) ;
#177 = DIRECTION ( 'NONE',  ( 1.693581347345435759E-30, -1.000000000000000000, 4.850609764125466226E-16 ) ) ;
#178 = EDGE_CURVE ( 'NONE', #226, #226, #38, .T. ) ;
#179 = ORIENTED_EDGE ( 'NONE', *, *, #7, .F. ) ;
#180 = DIRECTION ( 'NONE',  ( 0.0000000000000000000, 1.000000000000000000, -9.623985997097432396E-16 ) ) ;
#181 = DIRECTION ( 'NONE',  ( -3.491481338843133355E-15, 1.030643345817079849E-16, -1.000000000000000000 ) ) ;
#182 = CARTESIAN_POINT ( 'NONE',  ( 0.0000000000000000000, 0.0000000000000000000, 0.0000000000000000000 ) ) ;
#183 = CARTESIAN_POINT ( 'NONE',  ( 3.526396152231565067E-13, 2.399999999999985700, 101.0000000000000000 ) ) ;
#184 = DIRECTION ( 'NONE',  ( -1.709563334823622102E-30, 1.000000000000000000, -4.811992998548704365E-16 ) ) ;
#185 = ADVANCED_FACE ( 'NONE', ( #186, #125 ), #165, .T. ) ;
#186 = FACE_BOUND ( 'NONE', #153, .T. ) ;
#187 = CLOSED_SHELL ( 'NONE', ( #70, #49, #67, #147 ) ) ;
#188 = PERSON_AND_ORGANIZATION ( #196, #123 ) ;
#189 = PERSON_AND_ORGANIZATION_ROLE ( 'classification_officer' ) ;
#190 = ADVANCED_FACE ( 'NONE', ( #93, #108 ), #200, .T. ) ;
#191 = APPROVAL_ROLE ( '' ) ;
#192 = PERSON_AND_ORGANIZATION ( #196, #123 ) ;
#193 = SHAPE_DEFINITION_REPRESENTATION ( #86, #126 ) ;
#194 = CIRCLE ( 'NONE', #105, 2.999999999999989786 ) ;
#195 = CARTESIAN_POINT ( 'NONE',  ( 3.526396152231565067E-13, -1.040949779275250653E-14, 101.0000000000000000 ) ) ;
#196 = PERSON ( 'UNSPECIFIED', 'UNSPECIFIED', 'UNSPECIFIED', ('UNSPECIFIED'), ('UNSPECIFIED'), ('UNSPECIFIED') ) ;
#197 = DIRECTION ( 'NONE',  ( -3.491481338843133355E-15, 1.030643345817079849E-16, -1.000000000000000000 ) ) ;
#198 = DIRECTION ( 'NONE',  ( 3.491481338843133355E-15, 4.850609764125466226E-16, 1.000000000000000000 ) ) ;
#199 = DIRECTION ( 'NONE',  ( 3.491481338843133355E-15, 4.850609764125466226E-16, 1.000000000000000000 ) ) ;
#200 = CONICAL_SURFACE ( 'NONE', #25, 3.604999999999999538, 0.5235987755982938197 ) ;
#201 = CARTESIAN_POINT ( 'NONE',  ( 3.505447264198505636E-13, -1.034765919200348261E-14, 100.4000000000000057 ) ) ;
#202 = DIRECTION ( 'NONE',  ( 0.0000000000000000000, 1.000000000000000000, 0.0000000000000000000 ) ) ;
#203 = ORIENTED_EDGE ( 'NONE', *, *, #17, .F. ) ;
#204 = CARTESIAN_POINT ( 'NONE',  ( 3.505447264198505636E-13, 2.999999999999985789, 100.4000000000000057 ) ) ;
#205 = VERTEX_POINT ( 'NONE', #43 ) ;
#206 = PERSON_AND_ORGANIZATION ( #196, #123 ) ;
#207 = CC_DESIGN_SECURITY_CLASSIFICATION ( #228, ( #32 ) ) ;
#208 = PERSON_AND_ORGANIZATION_ROLE ( 'creator' ) ;
#209 = PERSON_AND_ORGANIZATION ( #196, #123 ) ;
#210 = APPROVAL_DATE_TIME ( #230, #66 ) ;
#211 = CC_DESIGN_PERSON_AND_ORGANIZATION_ASSIGNMENT ( #117, #98, ( #32 ) ) ;
#212 = AXIS2_PLACEMENT_3D ( 'NONE', #195, #75, #89 ) ;
#213 = SECURITY_CLASSIFICATION_LEVEL ( 'unclassified' ) ;
#214 = LOCAL_TIME ( 7, 52, 55.00000000000000000, #150 ) ;
#215 = DIRECTION ( 'NONE',  ( 3.491481338843133355E-15, -1.030643345817079849E-16, 1.000000000000000000 ) ) ;
#216 = CC_DESIGN_DATE_AND_TIME_ASSIGNMENT ( #82, #34, ( #228 ) ) ;
#217 = PLANE ( 'NONE',  #160 ) ;
#218 = FACE_OUTER_BOUND ( 'NONE', #21, .T. ) ;
#219 = CC_DESIGN_PERSON_AND_ORGANIZATION_ASSIGNMENT ( #12, #208, ( #83 ) ) ;
#220 = ORIENTED_EDGE ( 'NONE', *, *, #128, .T. ) ;
#221 = LOCAL_TIME ( 7, 52, 55.00000000000000000, #114 ) ;
#222 = VERTEX_POINT ( 'NONE', #223 ) ;
#223 = CARTESIAN_POINT ( 'NONE',  ( 5.915954699603261971E-14, 3.604999999999997762, 16.94396769012505644 ) ) ;
#224 =( NAMED_UNIT ( * ) SI_UNIT ( $, .STERADIAN. ) SOLID_ANGLE_UNIT ( ) );
#225 = APPLICATION_PROTOCOL_DEFINITION ( 'international standard', 'config_control_design', 1994, #45 ) ;
#226 = VERTEX_POINT ( 'NONE', #142 ) ;
#227 = APPROVAL_DATE_TIME ( #31, #144 ) ;
#228 = SECURITY_CLASSIFICATION ( '', '', #213 ) ;
#229 = APPROVAL_DATE_TIME ( #152, #59 ) ;
#230 = DATE_AND_TIME ( #131, #55 ) ;
#231 = EDGE_LOOP ( 'NONE', ( #220 ) ) ;
#232 =( GEOMETRIC_REPRESENTATION_CONTEXT ( 3 ) GLOBAL_UNCERTAINTY_ASSIGNED_CONTEXT ( ( #174 ) ) GLOBAL_UNIT_ASSIGNED_CONTEXT ( ( #79, #29, #224 ) ) REPRESENTATION_CONTEXT ( 'NONE', 'WORKASPACE' ) );
#233 = ORIENTED_EDGE ( 'NONE', *, *, #17, .T. ) ;
#234 = DIRECTION ( 'NONE',  ( -3.491481338843133355E-15, -4.850609764125466226E-16, -1.000000000000000000 ) ) ;
#235 = FACE_OUTER_BOUND ( 'NONE', #231, .T. ) ;
#236 = EDGE_LOOP ( 'NONE', ( #151 ) ) ;
#237 = FACE_OUTER_BOUND ( 'NONE', #161, .T. ) ;
#238 = CARTESIAN_POINT ( 'NONE',  ( 5.915954699603261971E-14, -1.746318755156698317E-15, 16.94396769012505644 ) ) ;
#239 = APPROVAL_PERSON_ORGANIZATION ( #206, #144, #46 ) ;
#240 = CARTESIAN_POINT ( 'NONE',  ( 5.714244898466527246E-30, 7.938628166430299615E-31, 1.636624785845163371E-15 ) ) ;
#241 = MANIFOLD_SOLID_BREP ( 'Corps-Déplacer/Copier1[2]', #187 ) ;
#242 = DIRECTION ( 'NONE',  ( 0.0000000000000000000, 1.000000000000000000, 0.0000000000000000000 ) ) ;
#243 = EDGE_CURVE ( 'NONE', #205, #205, #154, .T. ) ;
ENDSEC;
END-ISO-10303-21;
