ISO-10303-21;
HEADER;
FILE_DESCRIPTION (( 'STEP AP203' ),
    '1' );
FILE_NAME ('341760.step',
    '2021-11-26T06:52:54',
    ( '' ),
    ( '' ),
    'SwSTEP 2.0',
    'SolidWorks 2019',
    '' );
FILE_SCHEMA (( 'CONFIG_CONTROL_DESIGN' ));
ENDSEC;

DATA;
#1 = EDGE_LOOP ( 'NONE', ( #176 ) ) ;
#2 = CONICAL_SURFACE ( 'NONE', #10, 3.324059892324147558, 0.5235987755982978165 ) ;
#3 = DIRECTION ( 'NONE',  ( -3.491481338843133355E-15, -4.813488859355621390E-16, -1.000000000000000000 ) ) ;
#4 = FACE_OUTER_BOUND ( 'NONE', #53, .T. ) ;
#5 = PERSON_AND_ORGANIZATION ( #109, #56 ) ;
#6 = CARTESIAN_POINT ( 'NONE',  ( 5.946191814966037014E-14, 3.554999999999997939, 17.03057023050349983 ) ) ;
#7 = CC_DESIGN_DATE_AND_TIME_ASSIGNMENT ( #173, #235, ( #74 ) ) ;
#8 = COORDINATED_UNIVERSAL_TIME_OFFSET ( 1, 0, .AHEAD. ) ;
#9 = LOCAL_TIME ( 7, 52, 54.00000000000000000, #89 ) ;
#10 = AXIS2_PLACEMENT_3D ( 'NONE', #157, #96, #229 ) ;
#11 = APPLICATION_PROTOCOL_DEFINITION ( 'international standard', 'config_control_design', 1994, #39 ) ;
#12 = ADVANCED_FACE ( 'NONE', ( #185 ), #224, .T. ) ;
#13 = CC_DESIGN_PERSON_AND_ORGANIZATION_ASSIGNMENT ( #28, #29, ( #148 ) ) ;
#14 = FACE_OUTER_BOUND ( 'NONE', #147, .T. ) ;
#15 = CC_DESIGN_APPROVAL ( #46, ( #68 ) ) ;
#16 = CARTESIAN_POINT ( 'NONE',  ( 5.946191814966037014E-14, 8.197646007300207295E-15, 17.03057023050349983 ) ) ;
#17 = FACE_OUTER_BOUND ( 'NONE', #104, .T. ) ;
#18 = ADVANCED_FACE ( 'NONE', ( #36 ), #158, .T. ) ;
#19 = EDGE_CURVE ( 'NONE', #172, #172, #54, .T. ) ;
#20 = DIRECTION ( 'NONE',  ( 0.0000000000000000000, 1.000000000000000000, 0.0000000000000000000 ) ) ;
#21 = DIRECTION ( 'NONE',  ( -3.491481338843133355E-15, 1.030643345817079849E-16, -1.000000000000000000 ) ) ;
#22 = DESIGN_CONTEXT ( 'detailed design', #55, 'design' ) ;
#23 = DIRECTION ( 'NONE',  ( -3.491481338843133355E-15, 1.030643345817079849E-16, -1.000000000000000000 ) ) ;
#24 = DIRECTION ( 'NONE',  ( -3.491481338843133355E-15, -4.813488859355621390E-16, -1.000000000000000000 ) ) ;
#25 = CALENDAR_DATE ( 2021, 26, 11 ) ;
#26 = APPROVAL_DATE_TIME ( #121, #131 ) ;
#27 = AXIS2_PLACEMENT_3D ( 'NONE', #75, #145, #242 ) ;
#28 = PERSON_AND_ORGANIZATION ( #109, #56 ) ;
#29 = PERSON_AND_ORGANIZATION_ROLE ( 'design_supplier' ) ;
#30 = AXIS2_PLACEMENT_3D ( 'NONE', #136, #213, #171 ) ;
#31 = ADVANCED_FACE ( 'NONE', ( #204 ), #73, .T. ) ;
#32 = FACE_BOUND ( 'NONE', #183, .T. ) ;
#33 =( NAMED_UNIT ( * ) SI_UNIT ( $, .STERADIAN. ) SOLID_ANGLE_UNIT ( ) );
#34 = CARTESIAN_POINT ( 'NONE',  ( 0.0000000000000000000, 0.0000000000000000000, 0.0000000000000000000 ) ) ;
#35 = AXIS2_PLACEMENT_3D ( 'NONE', #111, #3, #122 ) ;
#36 = FACE_OUTER_BOUND ( 'NONE', #102, .T. ) ;
#37 = VERTEX_POINT ( 'NONE', #81 ) ;
#38 = DIRECTION ( 'NONE',  ( -1.680620652716947076E-30, 1.000000000000000000, -4.813488859355621390E-16 ) ) ;
#39 = APPLICATION_CONTEXT ( 'configuration controlled 3d designs of mechanical parts and assemblies' ) ;
#40 = ORIENTED_EDGE ( 'NONE', *, *, #58, .T. ) ;
#41 = CARTESIAN_POINT ( 'NONE',  ( 1.396592535537253342E-15, 3.554999999999997495, 0.3999999999999999667 ) ) ;
#42 = AXIS2_PLACEMENT_3D ( 'NONE', #238, #126, #43 ) ;
#43 = DIRECTION ( 'NONE',  ( 1.000000000000000000, 0.0000000000000000000, 0.0000000000000000000 ) ) ;
#44 = PERSON_AND_ORGANIZATION ( #109, #56 ) ;
#45 = PRODUCT ( '341760', '341760', '', ( #86 ) ) ;
#46 = APPROVAL ( #71, 'UNSPECIFIED' ) ;
#47 = CALENDAR_DATE ( 2021, 26, 11 ) ;
#48 = AXIS2_PLACEMENT_3D ( 'NONE', #114, #169, #65 ) ;
#49 = EDGE_LOOP ( 'NONE', ( #178 ) ) ;
#50 = EDGE_CURVE ( 'NONE', #165, #165, #118, .T. ) ;
#51 = PERSON_AND_ORGANIZATION_ROLE ( 'creator' ) ;
#52 = APPROVAL_PERSON_ORGANIZATION ( #5, #210, #194 ) ;
#53 = EDGE_LOOP ( 'NONE', ( #40 ) ) ;
#54 = CIRCLE ( 'NONE', #27, 2.999999999999989786 ) ;
#55 = APPLICATION_CONTEXT ( 'configuration controlled 3d designs of mechanical parts and assemblies' ) ;
#56 = ORGANIZATION ( 'UNSPECIFIED', 'UNSPECIFIED', '' ) ;
#57 = PRODUCT_RELATED_PRODUCT_CATEGORY ( 'detail', '', ( #45 ) ) ;
#58 = EDGE_CURVE ( 'NONE', #77, #77, #92, .T. ) ;
#59 = ADVANCED_FACE ( 'NONE', ( #155, #227 ), #223, .T. ) ;
#60 = EDGE_LOOP ( 'NONE', ( #153 ) ) ;
#61 = CIRCLE ( 'NONE', #195, 3.554999999999999716 ) ;
#62 = DIRECTION ( 'NONE',  ( 3.491481338843133355E-15, 4.813488859355621390E-16, 1.000000000000000000 ) ) ;
#63 = VERTEX_POINT ( 'NONE', #116 ) ;
#64 = DIRECTION ( 'NONE',  ( -3.491481338843133355E-15, 1.030643345817079849E-16, -1.000000000000000000 ) ) ;
#65 = DIRECTION ( 'NONE',  ( -3.598472008923184252E-31, -1.000000000000000000, -1.030643345817079849E-16 ) ) ;
#66 = CARTESIAN_POINT ( 'NONE',  ( 5.946191814966037014E-14, -1.755244388353888385E-15, 17.03057023050349983 ) ) ;
#67 = APPROVAL_ROLE ( '' ) ;
#68 = PRODUCT_DEFINITION ( 'UNKNOWN', '', #148, #22 ) ;
#69 = PERSON_AND_ORGANIZATION ( #109, #56 ) ;
#70 = AXIS2_PLACEMENT_3D ( 'NONE', #34, #201, #243 ) ;
#71 = APPROVAL_STATUS ( 'not_yet_approved' ) ;
#72 = ORIENTED_EDGE ( 'NONE', *, *, #19, .F. ) ;
#73 = PLANE ( 'NONE',  #48 ) ;
#74 = SECURITY_CLASSIFICATION ( '', '', #105 ) ;
#75 = CARTESIAN_POINT ( 'NONE',  ( 6.281823795492844412E-14, -1.854318916842698141E-15, 17.99185842870425489 ) ) ;
#76 = DIRECTION ( 'NONE',  ( 0.0000000000000000000, 1.000000000000000000, 0.0000000000000000000 ) ) ;
#77 = VERTEX_POINT ( 'NONE', #41 ) ;
#78 = CIRCLE ( 'NONE', #138, 3.324059892324147558 ) ;
#79 = MANIFOLD_SOLID_BREP ( 'Corps-Déplacer/Copier1[1]', #95 ) ;
#80 = VERTEX_POINT ( 'NONE', #225 ) ;
#81 = CARTESIAN_POINT ( 'NONE',  ( 5.946191814966037014E-14, 3.554999999999997939, 17.03057023050349983 ) ) ;
#82 = CC_DESIGN_APPROVAL ( #210, ( #148 ) ) ;
#83 = FACE_BOUND ( 'NONE', #107, .T. ) ;
#84 = DATE_AND_TIME ( #25, #182 ) ;
#85 = EDGE_LOOP ( 'NONE', ( #133 ) ) ;
#86 = MECHANICAL_CONTEXT ( 'NONE', #39, 'mechanical' ) ;
#87 = EDGE_LOOP ( 'NONE', ( #179 ) ) ;
#88 = ADVANCED_FACE ( 'NONE', ( #4, #83 ), #2, .T. ) ;
#89 = COORDINATED_UNIVERSAL_TIME_OFFSET ( 1, 0, .AHEAD. ) ;
#90 = CARTESIAN_POINT ( 'NONE',  ( 6.281823795492844412E-14, 2.999999999999988010, 17.99185842870425489 ) ) ;
#91 = AXIS2_PLACEMENT_3D ( 'NONE', #152, #156, #135 ) ;
#92 = CIRCLE ( 'NONE', #30, 3.554999999999997495 ) ;
#93 = EDGE_LOOP ( 'NONE', ( #199 ) ) ;
#94 = DIRECTION ( 'NONE',  ( 1.680620652716947076E-30, -1.000000000000000000, 4.813488859355621390E-16 ) ) ;
#95 = CLOSED_SHELL ( 'NONE', ( #31, #59, #216, #220, #18 ) ) ;
#96 = DIRECTION ( 'NONE',  ( 3.491481338843133355E-15, 4.813488859355621390E-16, 1.000000000000000000 ) ) ;
#97 = DIRECTION ( 'NONE',  ( -1.680620652716947076E-30, 1.000000000000000000, -4.813488859355621390E-16 ) ) ;
#98 = PERSON_AND_ORGANIZATION_ROLE ( 'creator' ) ;
#99 = AXIS2_PLACEMENT_3D ( 'NONE', #6, #123, #167 ) ;
#100 = SHAPE_DEFINITION_REPRESENTATION ( #166, #134 ) ;
#101 =( NAMED_UNIT ( * ) PLANE_ANGLE_UNIT ( ) SI_UNIT ( $, .RADIAN. ) );
#102 = EDGE_LOOP ( 'NONE', ( #149 ) ) ;
#103 = PERSON_AND_ORGANIZATION_ROLE ( 'design_owner' ) ;
#104 = EDGE_LOOP ( 'NONE', ( #112 ) ) ;
#105 = SECURITY_CLASSIFICATION_LEVEL ( 'unclassified' ) ;
#106 = EDGE_CURVE ( 'NONE', #80, #80, #61, .T. ) ;
#107 = EDGE_LOOP ( 'NONE', ( #236 ) ) ;
#108 = FACE_OUTER_BOUND ( 'NONE', #87, .T. ) ;
#109 = PERSON ( 'UNSPECIFIED', 'UNSPECIFIED', 'UNSPECIFIED', ('UNSPECIFIED'), ('UNSPECIFIED'), ('UNSPECIFIED') ) ;
#110 = CC_DESIGN_APPROVAL ( #131, ( #74 ) ) ;
#111 = CARTESIAN_POINT ( 'NONE',  ( 0.0000000000000000000, 0.0000000000000000000, 0.0000000000000000000 ) ) ;
#112 = ORIENTED_EDGE ( 'NONE', *, *, #174, .T. ) ;
#113 = CC_DESIGN_DATE_AND_TIME_ASSIGNMENT ( #175, #214, ( #68 ) ) ;
#114 = CARTESIAN_POINT ( 'NONE',  ( 3.526396152231565067E-13, -1.040949779275250653E-14, 101.0000000000000000 ) ) ;
#115 = FACE_OUTER_BOUND ( 'NONE', #60, .T. ) ;
#116 = CARTESIAN_POINT ( 'NONE',  ( 6.842277657836020854E-46, 3.324059892324147558, 0.0000000000000000000 ) ) ;
#117 = LOCAL_TIME ( 7, 52, 54.00000000000000000, #234 ) ;
#118 = CIRCLE ( 'NONE', #237, 2.399999999999996358 ) ;
#119 = UNCERTAINTY_MEASURE_WITH_UNIT (LENGTH_MEASURE( 1.000000000000000082E-05 ), #202, 'distance_accuracy_value', 'NONE');
#120 = APPROVAL_STATUS ( 'not_yet_approved' ) ;
#121 = DATE_AND_TIME ( #161, #206 ) ;
#122 = DIRECTION ( 'NONE',  ( -1.680620652716947076E-30, 1.000000000000000000, -4.813488859355621390E-16 ) ) ;
#123 = DIRECTION ( 'NONE',  ( -3.491481338843133355E-15, 1.030643345817079849E-16, -1.000000000000000000 ) ) ;
#124 = APPLICATION_PROTOCOL_DEFINITION ( 'international standard', 'config_control_design', 1994, #55 ) ;
#125 = CC_DESIGN_PERSON_AND_ORGANIZATION_ASSIGNMENT ( #127, #98, ( #148 ) ) ;
#126 = DIRECTION ( 'NONE',  ( 0.0000000000000000000, 0.0000000000000000000, 1.000000000000000000 ) ) ;
#127 = PERSON_AND_ORGANIZATION ( #109, #56 ) ;
#128 = AXIS2_PLACEMENT_3D ( 'NONE', #190, #23, #20 ) ;
#129 = APPROVAL_PERSON_ORGANIZATION ( #69, #131, #67 ) ;
#130 = FACE_OUTER_BOUND ( 'NONE', #222, .T. ) ;
#131 = APPROVAL ( #160, 'UNSPECIFIED' ) ;
#132 = CONICAL_SURFACE ( 'NONE', #231, 3.554999999999999716, 0.5235987755982937086 ) ;
#133 = ORIENTED_EDGE ( 'NONE', *, *, #50, .F. ) ;
#134 = ADVANCED_BREP_SHAPE_REPRESENTATION ( '341760', ( #79, #239, #42 ), #146 ) ;
#135 = DIRECTION ( 'NONE',  ( 0.0000000000000000000, 1.000000000000000000, 0.0000000000000000000 ) ) ;
#136 = CARTESIAN_POINT ( 'NONE',  ( 1.396592535537259259E-15, 1.925395543742256839E-16, 0.4000000000000016875 ) ) ;
#137 = DIRECTION ( 'NONE',  ( 0.0000000000000000000, 1.000000000000000000, 0.0000000000000000000 ) ) ;
#138 = AXIS2_PLACEMENT_3D ( 'NONE', #159, #211, #38 ) ;
#139 = COORDINATED_UNIVERSAL_TIME_OFFSET ( 1, 0, .AHEAD. ) ;
#140 = CALENDAR_DATE ( 2021, 26, 11 ) ;
#141 = COORDINATED_UNIVERSAL_TIME_OFFSET ( 1, 0, .AHEAD. ) ;
#142 = APPROVAL_DATE_TIME ( #84, #210 ) ;
#143 = CARTESIAN_POINT ( 'NONE',  ( 3.505447264198505636E-13, -1.034765919200348261E-14, 100.4000000000000057 ) ) ;
#144 = FACE_OUTER_BOUND ( 'NONE', #93, .T. ) ;
#145 = DIRECTION ( 'NONE',  ( -3.491481338843133355E-15, 1.030643345817079849E-16, -1.000000000000000000 ) ) ;
#146 =( GEOMETRIC_REPRESENTATION_CONTEXT ( 3 ) GLOBAL_UNCERTAINTY_ASSIGNED_CONTEXT ( ( #119 ) ) GLOBAL_UNIT_ASSIGNED_CONTEXT ( ( #202, #101, #33 ) ) REPRESENTATION_CONTEXT ( 'NONE', 'WORKASPACE' ) );
#147 = EDGE_LOOP ( 'NONE', ( #212 ) ) ;
#148 = PRODUCT_DEFINITION_FORMATION_WITH_SPECIFIED_SOURCE ( 'ANY', '', #45, .NOT_KNOWN. ) ;
#149 = ORIENTED_EDGE ( 'NONE', *, *, #106, .T. ) ;
#150 = DIRECTION ( 'NONE',  ( 0.0000000000000000000, 1.000000000000000000, 0.0000000000000000000 ) ) ;
#151 = EDGE_CURVE ( 'NONE', #37, #37, #181, .T. ) ;
#152 = CARTESIAN_POINT ( 'NONE',  ( 5.946191814966037014E-14, 8.197646007300208873E-15, 17.03057023050349983 ) ) ;
#153 = ORIENTED_EDGE ( 'NONE', *, *, #151, .T. ) ;
#154 = DIRECTION ( 'NONE',  ( -3.491481338843133355E-15, 1.030643345817079849E-16, -1.000000000000000000 ) ) ;
#155 = FACE_BOUND ( 'NONE', #1, .T. ) ;
#156 = DIRECTION ( 'NONE',  ( -3.491481338843133355E-15, -4.813488859355621390E-16, -1.000000000000000000 ) ) ;
#157 = CARTESIAN_POINT ( 'NONE',  ( 5.586483705908034937E-30, 7.701738738282907265E-31, 1.600032525953313188E-15 ) ) ;
#158 = PLANE ( 'NONE',  #99 ) ;
#159 = CARTESIAN_POINT ( 'NONE',  ( 5.586483705908034937E-30, 7.701738738282907265E-31, 1.600032525953313188E-15 ) ) ;
#160 = APPROVAL_STATUS ( 'not_yet_approved' ) ;
#161 = CALENDAR_DATE ( 2021, 26, 11 ) ;
#162 = CC_DESIGN_PERSON_AND_ORGANIZATION_ASSIGNMENT ( #198, #51, ( #68 ) ) ;
#163 = EDGE_LOOP ( 'NONE', ( #209 ) ) ;
#164 = CC_DESIGN_SECURITY_CLASSIFICATION ( #74, ( #148 ) ) ;
#165 = VERTEX_POINT ( 'NONE', #207 ) ;
#166 = PRODUCT_DEFINITION_SHAPE ( 'NONE', 'NONE',  #68 ) ;
#167 = DIRECTION ( 'NONE',  ( 3.598472008923184252E-31, 1.000000000000000000, 1.030643345817079849E-16 ) ) ;
#168 = CIRCLE ( 'NONE', #230, 2.999999999999996003 ) ;
#169 = DIRECTION ( 'NONE',  ( 3.491481338843133355E-15, -1.030643345817079849E-16, 1.000000000000000000 ) ) ;
#170 = DIRECTION ( 'NONE',  ( 0.0000000000000000000, 1.000000000000000000, 0.0000000000000000000 ) ) ;
#171 = DIRECTION ( 'NONE',  ( -1.679432581603497856E-30, 1.000000000000000000, -4.879672224969924937E-16 ) ) ;
#172 = VERTEX_POINT ( 'NONE', #90 ) ;
#173 = DATE_AND_TIME ( #140, #232 ) ;
#174 = EDGE_CURVE ( 'NONE', #63, #63, #78, .T. ) ;
#175 = DATE_AND_TIME ( #240, #9 ) ;
#176 = ORIENTED_EDGE ( 'NONE', *, *, #50, .T. ) ;
#177 = PERSON_AND_ORGANIZATION ( #109, #56 ) ;
#178 = ORIENTED_EDGE ( 'NONE', *, *, #200, .F. ) ;
#179 = ORIENTED_EDGE ( 'NONE', *, *, #106, .F. ) ;
#180 = CARTESIAN_POINT ( 'NONE',  ( 5.946191814966037014E-14, -1.755244388353888385E-15, 17.03057023050349983 ) ) ;
#181 = CIRCLE ( 'NONE', #91, 3.554999999999989502 ) ;
#182 = LOCAL_TIME ( 7, 52, 54.00000000000000000, #8 ) ;
#183 = EDGE_LOOP ( 'NONE', ( #218 ) ) ;
#184 = CC_DESIGN_PERSON_AND_ORGANIZATION_ASSIGNMENT ( #177, #233, ( #74 ) ) ;
#185 = FACE_OUTER_BOUND ( 'NONE', #163, .T. ) ;
#186 = CARTESIAN_POINT ( 'NONE',  ( 3.526396152231565067E-13, -1.040949779275250653E-14, 101.0000000000000000 ) ) ;
#187 = APPROVAL_PERSON_ORGANIZATION ( #217, #46, #215 ) ;
#188 = VERTEX_POINT ( 'NONE', #226 ) ;
#189 = CYLINDRICAL_SURFACE ( 'NONE', #35, 3.554999999999993499 ) ;
#190 = CARTESIAN_POINT ( 'NONE',  ( 3.505447264198505636E-13, -1.034765919200348261E-14, 100.4000000000000057 ) ) ;
#191 = CARTESIAN_POINT ( 'NONE',  ( -2.793241852954017468E-30, 3.324059892324147558, -8.000162629766565938E-16 ) ) ;
#192 = ADVANCED_FACE ( 'NONE', ( #115, #14 ), #189, .T. ) ;
#193 = CC_DESIGN_PERSON_AND_ORGANIZATION_ASSIGNMENT ( #44, #103, ( #45 ) ) ;
#194 = APPROVAL_ROLE ( '' ) ;
#195 = AXIS2_PLACEMENT_3D ( 'NONE', #66, #64, #170 ) ;
#196 = DATE_AND_TIME ( #47, #117 ) ;
#197 = APPROVAL_DATE_TIME ( #196, #46 ) ;
#198 = PERSON_AND_ORGANIZATION ( #109, #56 ) ;
#199 = ORIENTED_EDGE ( 'NONE', *, *, #200, .T. ) ;
#200 = EDGE_CURVE ( 'NONE', #188, #188, #168, .T. ) ;
#201 = DIRECTION ( 'NONE',  ( -3.491481338843133355E-15, 1.030643345817079849E-16, -1.000000000000000000 ) ) ;
#202 =( LENGTH_UNIT ( ) NAMED_UNIT ( * ) SI_UNIT ( .MILLI., .METRE. ) );
#203 = DIRECTION ( 'NONE',  ( -3.491481338843133355E-15, 1.030643345817079849E-16, -1.000000000000000000 ) ) ;
#204 = FACE_OUTER_BOUND ( 'NONE', #85, .T. ) ;
#205 = AXIS2_PLACEMENT_3D ( 'NONE', #191, #24, #97 ) ;
#206 = LOCAL_TIME ( 7, 52, 54.00000000000000000, #139 ) ;
#207 = CARTESIAN_POINT ( 'NONE',  ( 3.526396152231565067E-13, 2.399999999999985700, 101.0000000000000000 ) ) ;
#208 = AXIS2_PLACEMENT_3D ( 'NONE', #16, #62, #94 ) ;
#209 = ORIENTED_EDGE ( 'NONE', *, *, #151, .F. ) ;
#210 = APPROVAL ( #120, 'UNSPECIFIED' ) ;
#211 = DIRECTION ( 'NONE',  ( -3.491481338843133355E-15, -4.813488859355621390E-16, -1.000000000000000000 ) ) ;
#212 = ORIENTED_EDGE ( 'NONE', *, *, #58, .F. ) ;
#213 = DIRECTION ( 'NONE',  ( -3.491481338843133355E-15, -4.813488859355621390E-16, -1.000000000000000000 ) ) ;
#214 = DATE_TIME_ROLE ( 'creation_date' ) ;
#215 = APPROVAL_ROLE ( '' ) ;
#216 = ADVANCED_FACE ( 'NONE', ( #144, #130 ), #219, .T. ) ;
#217 = PERSON_AND_ORGANIZATION ( #109, #56 ) ;
#218 = ORIENTED_EDGE ( 'NONE', *, *, #19, .T. ) ;
#219 = CYLINDRICAL_SURFACE ( 'NONE', #70, 2.999999999999993339 ) ;
#220 = ADVANCED_FACE ( 'NONE', ( #32, #108 ), #132, .T. ) ;
#221 = CLOSED_SHELL ( 'NONE', ( #12, #192, #88, #241 ) ) ;
#222 = EDGE_LOOP ( 'NONE', ( #72 ) ) ;
#223 = CONICAL_SURFACE ( 'NONE', #128, 2.999999999999996003, 0.7853981633974453924 ) ;
#224 = PLANE ( 'NONE',  #208 ) ;
#225 = CARTESIAN_POINT ( 'NONE',  ( 5.946191814966037014E-14, 3.554999999999997939, 17.03057023050349983 ) ) ;
#226 = CARTESIAN_POINT ( 'NONE',  ( 3.505447264198505636E-13, 2.999999999999985789, 100.4000000000000057 ) ) ;
#227 = FACE_OUTER_BOUND ( 'NONE', #49, .T. ) ;
#228 = PLANE ( 'NONE',  #205 ) ;
#229 = DIRECTION ( 'NONE',  ( 1.680620652716947076E-30, -1.000000000000000000, 4.813488859355621390E-16 ) ) ;
#230 = AXIS2_PLACEMENT_3D ( 'NONE', #143, #203, #76 ) ;
#231 = AXIS2_PLACEMENT_3D ( 'NONE', #180, #21, #150 ) ;
#232 = LOCAL_TIME ( 7, 52, 54.00000000000000000, #141 ) ;
#233 = PERSON_AND_ORGANIZATION_ROLE ( 'classification_officer' ) ;
#234 = COORDINATED_UNIVERSAL_TIME_OFFSET ( 1, 0, .AHEAD. ) ;
#235 = DATE_TIME_ROLE ( 'classification_date' ) ;
#236 = ORIENTED_EDGE ( 'NONE', *, *, #174, .F. ) ;
#237 = AXIS2_PLACEMENT_3D ( 'NONE', #186, #154, #137 ) ;
#238 = CARTESIAN_POINT ( 'NONE',  ( 0.0000000000000000000, 0.0000000000000000000, 0.0000000000000000000 ) ) ;
#239 = MANIFOLD_SOLID_BREP ( 'Corps-Déplacer/Copier1[2]', #221 ) ;
#240 = CALENDAR_DATE ( 2021, 26, 11 ) ;
#241 = ADVANCED_FACE ( 'NONE', ( #17 ), #228, .T. ) ;
#242 = DIRECTION ( 'NONE',  ( 0.0000000000000000000, 1.000000000000000000, 0.0000000000000000000 ) ) ;
#243 = DIRECTION ( 'NONE',  ( 3.598472008923184252E-31, 1.000000000000000000, 1.030643345817079726E-16 ) ) ;
ENDSEC;
END-ISO-10303-21;
