ISO-10303-21;
HEADER;
FILE_DESCRIPTION (( 'STEP AP203' ),
    '1' );
FILE_NAME ('341752.step',
    '2021-11-26T06:52:54',
    ( '' ),
    ( '' ),
    'SwSTEP 2.0',
    'SolidWorks 2019',
    '' );
FILE_SCHEMA (( 'CONFIG_CONTROL_DESIGN' ));
ENDSEC;

DATA;
#1 = VERTEX_POINT ( 'NONE', #110 ) ;
#2 = MECHANICAL_CONTEXT ( 'NONE', #30, 'mechanical' ) ;
#3 = EDGE_CURVE ( 'NONE', #1, #1, #104, .T. ) ;
#4 = VERTEX_POINT ( 'NONE', #150 ) ;
#5 = CIRCLE ( 'NONE', #225, 3.514999999999989910 ) ;
#6 = DIRECTION ( 'NONE',  ( 0.0000000000000000000, 1.000000000000000000, 0.0000000000000000000 ) ) ;
#7 = DIRECTION ( 'NONE',  ( -3.491481338843133355E-15, 1.030643345817079849E-16, -1.000000000000000000 ) ) ;
#8 = DIRECTION ( 'NONE',  ( 0.0000000000000000000, 1.000000000000000000, 0.0000000000000000000 ) ) ;
#9 = APPROVAL_DATE_TIME ( #145, #108 ) ;
#10 = CARTESIAN_POINT ( 'NONE',  ( -2.742759167512828295E-30, 3.284059892324147967, -7.855574472070967891E-16 ) ) ;
#11 = ADVANCED_FACE ( 'NONE', ( #162 ), #65, .T. ) ;
#12 = CALENDAR_DATE ( 2021, 26, 11 ) ;
#13 = CYLINDRICAL_SURFACE ( 'NONE', #70, 2.999999999999993339 ) ;
#14 = ORIENTED_EDGE ( 'NONE', *, *, #176, .T. ) ;
#15 = APPROVAL_STATUS ( 'not_yet_approved' ) ;
#16 = EDGE_LOOP ( 'NONE', ( #84 ) ) ;
#17 = CC_DESIGN_APPROVAL ( #204, ( #67 ) ) ;
#18 = EDGE_LOOP ( 'NONE', ( #49 ) ) ;
#19 = AXIS2_PLACEMENT_3D ( 'NONE', #195, #27, #98 ) ;
#20 = CARTESIAN_POINT ( 'NONE',  ( 3.505447264198505636E-13, 2.999999999999985789, 100.4000000000000057 ) ) ;
#21 = CARTESIAN_POINT ( 'NONE',  ( 5.970381507256257049E-14, 3.514999999999998348, 17.09985226280625881 ) ) ;
#22 = DIRECTION ( 'NONE',  ( 0.0000000000000000000, 1.000000000000000000, 0.0000000000000000000 ) ) ;
#23 = EDGE_CURVE ( 'NONE', #55, #55, #138, .T. ) ;
#24 = DIRECTION ( 'NONE',  ( -3.491481338843133355E-15, 1.030643345817079849E-16, -1.000000000000000000 ) ) ;
#25 = DIRECTION ( 'NONE',  ( -1.643752441866774251E-30, 1.000000000000000000, -4.780976863022853468E-16 ) ) ;
#26 = SECURITY_CLASSIFICATION_LEVEL ( 'unclassified' ) ;
#27 = DIRECTION ( 'NONE',  ( -3.491481338843133355E-15, -4.784062854902158132E-16, -1.000000000000000000 ) ) ;
#28 = DATE_AND_TIME ( #62, #33 ) ;
#29 = ORIENTED_EDGE ( 'NONE', *, *, #43, .T. ) ;
#30 = APPLICATION_CONTEXT ( 'configuration controlled 3d designs of mechanical parts and assemblies' ) ;
#31 = EDGE_LOOP ( 'NONE', ( #103 ) ) ;
#32 = AXIS2_PLACEMENT_3D ( 'NONE', #157, #7, #96 ) ;
#33 = LOCAL_TIME ( 7, 52, 54.00000000000000000, #87 ) ;
#34 = FACE_OUTER_BOUND ( 'NONE', #146, .T. ) ;
#35 = CC_DESIGN_DATE_AND_TIME_ASSIGNMENT ( #97, #178, ( #198 ) ) ;
#36 = DIRECTION ( 'NONE',  ( 3.491481338843133355E-15, 4.784062854902158132E-16, 1.000000000000000000 ) ) ;
#37 = ADVANCED_FACE ( 'NONE', ( #137, #76 ), #241, .T. ) ;
#38 = DIRECTION ( 'NONE',  ( 1.000000000000000000, 0.0000000000000000000, 0.0000000000000000000 ) ) ;
#39 = PRODUCT_DEFINITION_SHAPE ( 'NONE', 'NONE',  #90 ) ;
#40 = CARTESIAN_POINT ( 'NONE',  ( 5.970381507256257049E-14, 8.180676803480603432E-15, 17.09985226280625881 ) ) ;
#41 = LOCAL_TIME ( 7, 52, 54.00000000000000000, #235 ) ;
#42 = PLANE ( 'NONE',  #44 ) ;
#43 = EDGE_CURVE ( 'NONE', #209, #209, #5, .T. ) ;
#44 = AXIS2_PLACEMENT_3D ( 'NONE', #10, #177, #192 ) ;
#45 = PERSON_AND_ORGANIZATION ( #125, #135 ) ;
#46 = FACE_OUTER_BOUND ( 'NONE', #16, .T. ) ;
#47 = PERSON_AND_ORGANIZATION_ROLE ( 'design_supplier' ) ;
#48 = FACE_BOUND ( 'NONE', #240, .T. ) ;
#49 = ORIENTED_EDGE ( 'NONE', *, *, #176, .F. ) ;
#50 = EDGE_LOOP ( 'NONE', ( #237 ) ) ;
#51 = APPROVAL_DATE_TIME ( #28, #139 ) ;
#52 = ORIENTED_EDGE ( 'NONE', *, *, #43, .F. ) ;
#53 = AXIS2_PLACEMENT_3D ( 'NONE', #167, #131, #6 ) ;
#54 = CC_DESIGN_DATE_AND_TIME_ASSIGNMENT ( #101, #197, ( #90 ) ) ;
#55 = VERTEX_POINT ( 'NONE', #21 ) ;
#56 = VERTEX_POINT ( 'NONE', #126 ) ;
#57 = CARTESIAN_POINT ( 'NONE',  ( 5.970381507256257049E-14, -1.762384894911640637E-15, 17.09985226280625881 ) ) ;
#58 = CC_DESIGN_PERSON_AND_ORGANIZATION_ASSIGNMENT ( #213, #68, ( #90 ) ) ;
#59 = PLANE ( 'NONE',  #171 ) ;
#60 = FACE_OUTER_BOUND ( 'NONE', #141, .T. ) ;
#61 = LOCAL_TIME ( 7, 52, 54.00000000000000000, #123 ) ;
#62 = CALENDAR_DATE ( 2021, 26, 11 ) ;
#63 = DIRECTION ( 'NONE',  ( -3.598472008923184252E-31, -1.000000000000000000, -1.030643345817079849E-16 ) ) ;
#64 = CARTESIAN_POINT ( 'NONE',  ( 3.505447264198505636E-13, -1.034765919200348261E-14, 100.4000000000000057 ) ) ;
#65 = PLANE ( 'NONE',  #153 ) ;
#66 = EDGE_LOOP ( 'NONE', ( #220 ) ) ;
#67 = PRODUCT_DEFINITION_FORMATION_WITH_SPECIFIED_SOURCE ( 'ANY', '', #74, .NOT_KNOWN. ) ;
#68 = PERSON_AND_ORGANIZATION_ROLE ( 'creator' ) ;
#69 = DATE_AND_TIME ( #194, #190 ) ;
#70 = AXIS2_PLACEMENT_3D ( 'NONE', #83, #24, #77 ) ;
#71 =( LENGTH_UNIT ( ) NAMED_UNIT ( * ) SI_UNIT ( .MILLI., .METRE. ) );
#72 = APPLICATION_PROTOCOL_DEFINITION ( 'international standard', 'config_control_design', 1994, #119 ) ;
#73 = VERTEX_POINT ( 'NONE', #20 ) ;
#74 = PRODUCT ( '341752', '341752', '', ( #2 ) ) ;
#75 = EDGE_CURVE ( 'NONE', #4, #4, #207, .T. ) ;
#76 = FACE_OUTER_BOUND ( 'NONE', #182, .T. ) ;
#77 = DIRECTION ( 'NONE',  ( 3.598472008923184252E-31, 1.000000000000000000, 1.030643345817079726E-16 ) ) ;
#78 = ADVANCED_BREP_SHAPE_REPRESENTATION ( '341752', ( #228, #147, #149 ), #105 ) ;
#79 = APPROVAL_ROLE ( '' ) ;
#80 = CARTESIAN_POINT ( 'NONE',  ( 3.526396152231565067E-13, -1.040949779275250653E-14, 101.0000000000000000 ) ) ;
#81 = ADVANCED_FACE ( 'NONE', ( #155 ), #59, .T. ) ;
#82 = PERSON_AND_ORGANIZATION ( #125, #135 ) ;
#83 = CARTESIAN_POINT ( 'NONE',  ( 0.0000000000000000000, 0.0000000000000000000, 0.0000000000000000000 ) ) ;
#84 = ORIENTED_EDGE ( 'NONE', *, *, #3, .F. ) ;
#85 = ORIENTED_EDGE ( 'NONE', *, *, #130, .F. ) ;
#86 = CC_DESIGN_SECURITY_CLASSIFICATION ( #198, ( #67 ) ) ;
#87 = COORDINATED_UNIVERSAL_TIME_OFFSET ( 1, 0, .AHEAD. ) ;
#88 = CIRCLE ( 'NONE', #95, 2.999999999999989786 ) ;
#89 = CC_DESIGN_PERSON_AND_ORGANIZATION_ASSIGNMENT ( #106, #163, ( #198 ) ) ;
#90 = PRODUCT_DEFINITION ( 'UNKNOWN', '', #67, #232 ) ;
#91 = PERSON_AND_ORGANIZATION ( #125, #135 ) ;
#92 = DIRECTION ( 'NONE',  ( -1.670346618174348955E-30, 1.000000000000000000, -4.784062854902158132E-16 ) ) ;
#93 = ADVANCED_FACE ( 'NONE', ( #214, #230 ), #175, .T. ) ;
#94 = CARTESIAN_POINT ( 'NONE',  ( 6.281823795492844412E-14, -1.854318916842698141E-15, 17.99185842870425489 ) ) ;
#95 = AXIS2_PLACEMENT_3D ( 'NONE', #94, #140, #134 ) ;
#96 = DIRECTION ( 'NONE',  ( 0.0000000000000000000, 1.000000000000000000, 0.0000000000000000000 ) ) ;
#97 = DATE_AND_TIME ( #12, #121 ) ;
#98 = DIRECTION ( 'NONE',  ( -1.670346618174348955E-30, 1.000000000000000000, -4.784062854902158132E-16 ) ) ;
#99 = AXIS2_PLACEMENT_3D ( 'NONE', #179, #174, #25 ) ;
#100 = UNCERTAINTY_MEASURE_WITH_UNIT (LENGTH_MEASURE( 1.000000000000000082E-05 ), #71, 'distance_accuracy_value', 'NONE');
#101 = DATE_AND_TIME ( #239, #61 ) ;
#102 = DIRECTION ( 'NONE',  ( -3.491481338843133355E-15, 1.030643345817079849E-16, -1.000000000000000000 ) ) ;
#103 = ORIENTED_EDGE ( 'NONE', *, *, #75, .F. ) ;
#104 = CIRCLE ( 'NONE', #99, 3.514999999999997904 ) ;
#105 =( GEOMETRIC_REPRESENTATION_CONTEXT ( 3 ) GLOBAL_UNCERTAINTY_ASSIGNED_CONTEXT ( ( #100 ) ) GLOBAL_UNIT_ASSIGNED_CONTEXT ( ( #71, #148, #188 ) ) REPRESENTATION_CONTEXT ( 'NONE', 'WORKASPACE' ) );
#106 = PERSON_AND_ORGANIZATION ( #125, #135 ) ;
#107 = AXIS2_PLACEMENT_3D ( 'NONE', #64, #236, #8 ) ;
#108 = APPROVAL ( #161, 'UNSPECIFIED' ) ;
#109 = CARTESIAN_POINT ( 'NONE',  ( 5.970381507256258311E-14, 8.180676803480605010E-15, 17.09985226280626236 ) ) ;
#110 = CARTESIAN_POINT ( 'NONE',  ( 1.396592535537253342E-15, 3.514999999999997904, 0.3999999999999999667 ) ) ;
#111 = APPLICATION_PROTOCOL_DEFINITION ( 'international standard', 'config_control_design', 1994, #30 ) ;
#112 = DIRECTION ( 'NONE',  ( 3.491481338843133355E-15, 4.784062854902158132E-16, 1.000000000000000000 ) ) ;
#113 = DIRECTION ( 'NONE',  ( 3.491481338843133355E-15, -1.030643345817079849E-16, 1.000000000000000000 ) ) ;
#114 = AXIS2_PLACEMENT_3D ( 'NONE', #233, #112, #160 ) ;
#115 = APPROVAL_STATUS ( 'not_yet_approved' ) ;
#116 = CYLINDRICAL_SURFACE ( 'NONE', #19, 3.514999999999993907 ) ;
#117 = APPROVAL_ROLE ( '' ) ;
#118 = FACE_OUTER_BOUND ( 'NONE', #50, .T. ) ;
#119 = APPLICATION_CONTEXT ( 'configuration controlled 3d designs of mechanical parts and assemblies' ) ;
#120 = ORIENTED_EDGE ( 'NONE', *, *, #130, .T. ) ;
#121 = LOCAL_TIME ( 7, 52, 54.00000000000000000, #180 ) ;
#122 = ADVANCED_FACE ( 'NONE', ( #133, #60 ), #13, .T. ) ;
#123 = COORDINATED_UNIVERSAL_TIME_OFFSET ( 1, 0, .AHEAD. ) ;
#124 = EDGE_LOOP ( 'NONE', ( #14 ) ) ;
#125 = PERSON ( 'UNSPECIFIED', 'UNSPECIFIED', 'UNSPECIFIED', ('UNSPECIFIED'), ('UNSPECIFIED'), ('UNSPECIFIED') ) ;
#126 = CARTESIAN_POINT ( 'NONE',  ( 0.0000000000000000000, 3.284059892324147967, 0.0000000000000000000 ) ) ;
#127 = DIRECTION ( 'NONE',  ( -3.491481338843133355E-15, 1.030643345817079849E-16, -1.000000000000000000 ) ) ;
#128 = AXIS2_PLACEMENT_3D ( 'NONE', #224, #132, #92 ) ;
#129 = CARTESIAN_POINT ( 'NONE',  ( 0.0000000000000000000, 0.0000000000000000000, 0.0000000000000000000 ) ) ;
#130 = EDGE_CURVE ( 'NONE', #226, #226, #88, .T. ) ;
#131 = DIRECTION ( 'NONE',  ( -3.491481338843133355E-15, 1.030643345817079849E-16, -1.000000000000000000 ) ) ;
#132 = DIRECTION ( 'NONE',  ( -3.491481338843133355E-15, -4.784062854902158132E-16, -1.000000000000000000 ) ) ;
#133 = FACE_OUTER_BOUND ( 'NONE', #199, .T. ) ;
#134 = DIRECTION ( 'NONE',  ( 0.0000000000000000000, 1.000000000000000000, 0.0000000000000000000 ) ) ;
#135 = ORGANIZATION ( 'UNSPECIFIED', 'UNSPECIFIED', '' ) ;
#136 = APPROVAL_ROLE ( '' ) ;
#137 = FACE_BOUND ( 'NONE', #203, .T. ) ;
#138 = CIRCLE ( 'NONE', #32, 3.514999999999999680 ) ;
#139 = APPROVAL ( #115, 'UNSPECIFIED' ) ;
#140 = DIRECTION ( 'NONE',  ( -3.491481338843133355E-15, 1.030643345817079849E-16, -1.000000000000000000 ) ) ;
#141 = EDGE_LOOP ( 'NONE', ( #85 ) ) ;
#142 = APPROVAL_DATE_TIME ( #69, #204 ) ;
#143 = DIRECTION ( 'NONE',  ( -3.491481338843133355E-15, -4.784062854902158132E-16, -1.000000000000000000 ) ) ;
#144 = ADVANCED_FACE ( 'NONE', ( #212 ), #42, .T. ) ;
#145 = DATE_AND_TIME ( #202, #41 ) ;
#146 = EDGE_LOOP ( 'NONE', ( #52 ) ) ;
#147 = MANIFOLD_SOLID_BREP ( 'Corps-Déplacer/Copier1[2]', #196 ) ;
#148 =( NAMED_UNIT ( * ) PLANE_ANGLE_UNIT ( ) SI_UNIT ( $, .RADIAN. ) );
#149 = AXIS2_PLACEMENT_3D ( 'NONE', #129, #227, #38 ) ;
#150 = CARTESIAN_POINT ( 'NONE',  ( 3.526396152231565067E-13, 2.399999999999985700, 101.0000000000000000 ) ) ;
#151 = AXIS2_PLACEMENT_3D ( 'NONE', #57, #127, #22 ) ;
#152 = PERSON_AND_ORGANIZATION ( #125, #135 ) ;
#153 = AXIS2_PLACEMENT_3D ( 'NONE', #211, #113, #63 ) ;
#154 = CC_DESIGN_PERSON_AND_ORGANIZATION_ASSIGNMENT ( #238, #219, ( #67 ) ) ;
#155 = FACE_OUTER_BOUND ( 'NONE', #66, .T. ) ;
#156 = DIRECTION ( 'NONE',  ( 0.0000000000000000000, 1.000000000000000000, 0.0000000000000000000 ) ) ;
#157 = CARTESIAN_POINT ( 'NONE',  ( 5.970381507256257049E-14, -1.762384894911640637E-15, 17.09985226280625881 ) ) ;
#158 = ADVANCED_FACE ( 'NONE', ( #231, #46 ), #116, .T. ) ;
#159 = SHAPE_DEFINITION_REPRESENTATION ( #39, #78 ) ;
#160 = DIRECTION ( 'NONE',  ( 1.670346618174348955E-30, -1.000000000000000000, 4.784062854902158132E-16 ) ) ;
#161 = APPROVAL_STATUS ( 'not_yet_approved' ) ;
#162 = FACE_OUTER_BOUND ( 'NONE', #31, .T. ) ;
#163 = PERSON_AND_ORGANIZATION_ROLE ( 'classification_officer' ) ;
#164 = ORIENTED_EDGE ( 'NONE', *, *, #75, .T. ) ;
#165 = APPROVAL_PERSON_ORGANIZATION ( #152, #139, #136 ) ;
#166 = PERSON_AND_ORGANIZATION ( #125, #135 ) ;
#167 = CARTESIAN_POINT ( 'NONE',  ( 3.505447264198505636E-13, -1.034765919200348261E-14, 100.4000000000000057 ) ) ;
#168 = ADVANCED_FACE ( 'NONE', ( #48, #118 ), #193, .T. ) ;
#169 = PERSON_AND_ORGANIZATION_ROLE ( 'design_owner' ) ;
#170 = CC_DESIGN_APPROVAL ( #139, ( #90 ) ) ;
#171 = AXIS2_PLACEMENT_3D ( 'NONE', #217, #181, #191 ) ;
#172 = CARTESIAN_POINT ( 'NONE',  ( 5.970381507256257049E-14, 3.514999999999998348, 17.09985226280625881 ) ) ;
#173 = CIRCLE ( 'NONE', #53, 2.999999999999996003 ) ;
#174 = DIRECTION ( 'NONE',  ( -3.491481338843133355E-15, -4.784062854902158132E-16, -1.000000000000000000 ) ) ;
#175 = CONICAL_SURFACE ( 'NONE', #114, 3.284059892324147967, 0.5235987755982978165 ) ;
#176 = EDGE_CURVE ( 'NONE', #56, #56, #215, .T. ) ;
#177 = DIRECTION ( 'NONE',  ( -3.491481338843133355E-15, -4.784062854902158132E-16, -1.000000000000000000 ) ) ;
#178 = DATE_TIME_ROLE ( 'classification_date' ) ;
#179 = CARTESIAN_POINT ( 'NONE',  ( 1.396592535537259061E-15, 1.913625141960871191E-16, 0.4000000000000016320 ) ) ;
#180 = COORDINATED_UNIVERSAL_TIME_OFFSET ( 1, 0, .AHEAD. ) ;
#181 = DIRECTION ( 'NONE',  ( -3.491481338843133355E-15, 1.030643345817079849E-16, -1.000000000000000000 ) ) ;
#182 = EDGE_LOOP ( 'NONE', ( #201 ) ) ;
#183 = CLOSED_SHELL ( 'NONE', ( #11, #37, #122, #168, #81 ) ) ;
#184 = ORIENTED_EDGE ( 'NONE', *, *, #243, .T. ) ;
#185 = AXIS2_PLACEMENT_3D ( 'NONE', #80, #102, #229 ) ;
#186 = APPROVAL_PERSON_ORGANIZATION ( #82, #108, #117 ) ;
#187 = DIRECTION ( 'NONE',  ( 1.670346618174348955E-30, -1.000000000000000000, 4.784062854902158132E-16 ) ) ;
#188 =( NAMED_UNIT ( * ) SI_UNIT ( $, .STERADIAN. ) SOLID_ANGLE_UNIT ( ) );
#189 = PRODUCT_RELATED_PRODUCT_CATEGORY ( 'detail', '', ( #74 ) ) ;
#190 = LOCAL_TIME ( 7, 52, 54.00000000000000000, #216 ) ;
#191 = DIRECTION ( 'NONE',  ( 3.598472008923184252E-31, 1.000000000000000000, 1.030643345817079849E-16 ) ) ;
#192 = DIRECTION ( 'NONE',  ( -1.670346618174348955E-30, 1.000000000000000000, -4.784062854902158132E-16 ) ) ;
#193 = CONICAL_SURFACE ( 'NONE', #151, 3.514999999999999680, 0.5235987755982950409 ) ;
#194 = CALENDAR_DATE ( 2021, 26, 11 ) ;
#195 = CARTESIAN_POINT ( 'NONE',  ( 0.0000000000000000000, 0.0000000000000000000, 0.0000000000000000000 ) ) ;
#196 = CLOSED_SHELL ( 'NONE', ( #200, #158, #93, #144 ) ) ;
#197 = DATE_TIME_ROLE ( 'creation_date' ) ;
#198 = SECURITY_CLASSIFICATION ( '', '', #26 ) ;
#199 = EDGE_LOOP ( 'NONE', ( #184 ) ) ;
#200 = ADVANCED_FACE ( 'NONE', ( #34 ), #208, .T. ) ;
#201 = ORIENTED_EDGE ( 'NONE', *, *, #243, .F. ) ;
#202 = CALENDAR_DATE ( 2021, 26, 11 ) ;
#203 = EDGE_LOOP ( 'NONE', ( #164 ) ) ;
#204 = APPROVAL ( #15, 'UNSPECIFIED' ) ;
#205 = CARTESIAN_POINT ( 'NONE',  ( 6.281823795492844412E-14, 2.999999999999988010, 17.99185842870425489 ) ) ;
#206 = CC_DESIGN_APPROVAL ( #108, ( #198 ) ) ;
#207 = CIRCLE ( 'NONE', #185, 2.399999999999996358 ) ;
#208 = PLANE ( 'NONE',  #210 ) ;
#209 = VERTEX_POINT ( 'NONE', #172 ) ;
#210 = AXIS2_PLACEMENT_3D ( 'NONE', #109, #36, #187 ) ;
#211 = CARTESIAN_POINT ( 'NONE',  ( 3.526396152231565067E-13, -1.040949779275250653E-14, 101.0000000000000000 ) ) ;
#212 = FACE_OUTER_BOUND ( 'NONE', #124, .T. ) ;
#213 = PERSON_AND_ORGANIZATION ( #125, #135 ) ;
#214 = FACE_OUTER_BOUND ( 'NONE', #223, .T. ) ;
#215 = CIRCLE ( 'NONE', #128, 3.284059892324147967 ) ;
#216 = COORDINATED_UNIVERSAL_TIME_OFFSET ( 1, 0, .AHEAD. ) ;
#217 = CARTESIAN_POINT ( 'NONE',  ( 5.970381507256258311E-14, 3.514999999999998348, 17.09985226280626236 ) ) ;
#218 = EDGE_LOOP ( 'NONE', ( #29 ) ) ;
#219 = PERSON_AND_ORGANIZATION_ROLE ( 'creator' ) ;
#220 = ORIENTED_EDGE ( 'NONE', *, *, #23, .T. ) ;
#221 = ORIENTED_EDGE ( 'NONE', *, *, #3, .T. ) ;
#222 = CC_DESIGN_PERSON_AND_ORGANIZATION_ASSIGNMENT ( #91, #169, ( #74 ) ) ;
#223 = EDGE_LOOP ( 'NONE', ( #221 ) ) ;
#224 = CARTESIAN_POINT ( 'NONE',  ( 5.485518335025656590E-30, 7.516312407150469918E-31, 1.571114894414193578E-15 ) ) ;
#225 = AXIS2_PLACEMENT_3D ( 'NONE', #40, #143, #156 ) ;
#226 = VERTEX_POINT ( 'NONE', #205 ) ;
#227 = DIRECTION ( 'NONE',  ( 0.0000000000000000000, 0.0000000000000000000, 1.000000000000000000 ) ) ;
#228 = MANIFOLD_SOLID_BREP ( 'Corps-Déplacer/Copier1[1]', #183 ) ;
#229 = DIRECTION ( 'NONE',  ( 0.0000000000000000000, 1.000000000000000000, 0.0000000000000000000 ) ) ;
#230 = FACE_BOUND ( 'NONE', #18, .T. ) ;
#231 = FACE_OUTER_BOUND ( 'NONE', #218, .T. ) ;
#232 = DESIGN_CONTEXT ( 'detailed design', #119, 'design' ) ;
#233 = CARTESIAN_POINT ( 'NONE',  ( 5.485518335025656590E-30, 7.516312407150469918E-31, 1.571114894414193578E-15 ) ) ;
#234 = CC_DESIGN_PERSON_AND_ORGANIZATION_ASSIGNMENT ( #166, #47, ( #67 ) ) ;
#235 = COORDINATED_UNIVERSAL_TIME_OFFSET ( 1, 0, .AHEAD. ) ;
#236 = DIRECTION ( 'NONE',  ( -3.491481338843133355E-15, 1.030643345817079849E-16, -1.000000000000000000 ) ) ;
#237 = ORIENTED_EDGE ( 'NONE', *, *, #23, .F. ) ;
#238 = PERSON_AND_ORGANIZATION ( #125, #135 ) ;
#239 = CALENDAR_DATE ( 2021, 26, 11 ) ;
#240 = EDGE_LOOP ( 'NONE', ( #120 ) ) ;
#241 = CONICAL_SURFACE ( 'NONE', #107, 2.999999999999996003, 0.7853981633974453924 ) ;
#242 = APPROVAL_PERSON_ORGANIZATION ( #45, #204, #79 ) ;
#243 = EDGE_CURVE ( 'NONE', #73, #73, #173, .T. ) ;
ENDSEC;
END-ISO-10303-21;
