ISO-10303-21;
HEADER;
FILE_DESCRIPTION (( 'STEP AP203' ),
    '1' );
FILE_NAME ('341751.step',
    '2021-11-26T06:52:53',
    ( '' ),
    ( '' ),
    'SwSTEP 2.0',
    'SolidWorks 2019',
    '' );
FILE_SCHEMA (( 'CONFIG_CONTROL_DESIGN' ));
ENDSEC;

DATA;
#1 = CIRCLE ( 'NONE', #69, 2.999999999999996003 ) ;
#2 = LOCAL_TIME ( 7, 52, 53.00000000000000000, #122 ) ;
#3 = DIRECTION ( 'NONE',  ( 0.0000000000000000000, 1.000000000000000000, 0.0000000000000000000 ) ) ;
#4 = CC_DESIGN_PERSON_AND_ORGANIZATION_ASSIGNMENT ( #134, #7, ( #91 ) ) ;
#5 = APPROVAL_ROLE ( '' ) ;
#6 = UNCERTAINTY_MEASURE_WITH_UNIT (LENGTH_MEASURE( 1.000000000000000082E-05 ), #22, 'distance_accuracy_value', 'NONE');
#7 = PERSON_AND_ORGANIZATION_ROLE ( 'classification_officer' ) ;
#8 = APPLICATION_CONTEXT ( 'configuration controlled 3d designs of mechanical parts and assemblies' ) ;
#9 = DIRECTION ( 'NONE',  ( 0.0000000000000000000, 1.000000000000000000, 0.0000000000000000000 ) ) ;
#10 = CIRCLE ( 'NONE', #32, 3.279059892324148073 ) ;
#11 = ADVANCED_FACE ( 'NONE', ( #74 ), #218, .T. ) ;
#12 = APPROVAL ( #36, 'UNSPECIFIED' ) ;
#13 = ORIENTED_EDGE ( 'NONE', *, *, #56, .T. ) ;
#14 = EDGE_LOOP ( 'NONE', ( #13 ) ) ;
#15 = VERTEX_POINT ( 'NONE', #238 ) ;
#16 = CIRCLE ( 'NONE', #81, 3.509999999999998010 ) ;
#17 = DIRECTION ( 'NONE',  ( -3.491481338843133355E-15, 1.030643345817079849E-16, -1.000000000000000000 ) ) ;
#18 = CYLINDRICAL_SURFACE ( 'NONE', #119, 2.999999999999993339 ) ;
#19 = AXIS2_PLACEMENT_3D ( 'NONE', #212, #121, #102 ) ;
#20 = FACE_OUTER_BOUND ( 'NONE', #71, .T. ) ;
#21 = DIRECTION ( 'NONE',  ( -1.646093969561741072E-30, 1.000000000000000000, -4.787787371374737371E-16 ) ) ;
#22 =( LENGTH_UNIT ( ) NAMED_UNIT ( * ) SI_UNIT ( .MILLI., .METRE. ) );
#23 = CARTESIAN_POINT ( 'NONE',  ( 5.973405218792535184E-14, 3.509999999999997566, 17.10851251684410101 ) ) ;
#24 = CARTESIAN_POINT ( 'NONE',  ( 5.973405218792535184E-14, 8.178555653003154922E-15, 17.10851251684410101 ) ) ;
#25 = APPROVAL ( #65, 'UNSPECIFIED' ) ;
#26 = FACE_OUTER_BOUND ( 'NONE', #157, .T. ) ;
#27 = EDGE_LOOP ( 'NONE', ( #213 ) ) ;
#28 = DATE_AND_TIME ( #29, #72 ) ;
#29 = CALENDAR_DATE ( 2021, 26, 11 ) ;
#30 = CC_DESIGN_SECURITY_CLASSIFICATION ( #91, ( #201 ) ) ;
#31 = ORIENTED_EDGE ( 'NONE', *, *, #147, .T. ) ;
#32 = AXIS2_PLACEMENT_3D ( 'NONE', #79, #115, #98 ) ;
#33 = PERSON ( 'UNSPECIFIED', 'UNSPECIFIED', 'UNSPECIFIED', ('UNSPECIFIED'), ('UNSPECIFIED'), ('UNSPECIFIED') ) ;
#34 = ORIENTED_EDGE ( 'NONE', *, *, #40, .F. ) ;
#35 = EDGE_LOOP ( 'NONE', ( #51 ) ) ;
#36 = APPROVAL_STATUS ( 'not_yet_approved' ) ;
#37 = AXIS2_PLACEMENT_3D ( 'NONE', #127, #117, #61 ) ;
#38 = ORIENTED_EDGE ( 'NONE', *, *, #147, .F. ) ;
#39 = AXIS2_PLACEMENT_3D ( 'NONE', #80, #208, #77 ) ;
#40 = EDGE_CURVE ( 'NONE', #93, #93, #10, .T. ) ;
#41 = DIRECTION ( 'NONE',  ( 3.598472008923184252E-31, 1.000000000000000000, 1.030643345817079726E-16 ) ) ;
#42 = APPLICATION_PROTOCOL_DEFINITION ( 'international standard', 'config_control_design', 1994, #165 ) ;
#43 = DIRECTION ( 'NONE',  ( -3.491481338843133355E-15, 1.030643345817079849E-16, -1.000000000000000000 ) ) ;
#44 = CARTESIAN_POINT ( 'NONE',  ( 5.973405218792535184E-14, 3.509999999999997566, 17.10851251684410101 ) ) ;
#45 = PERSON_AND_ORGANIZATION ( #33, #142 ) ;
#46 = APPROVAL_PERSON_ORGANIZATION ( #214, #25, #195 ) ;
#47 = FACE_OUTER_BOUND ( 'NONE', #89, .T. ) ;
#48 = SECURITY_CLASSIFICATION_LEVEL ( 'unclassified' ) ;
#49 = CARTESIAN_POINT ( 'NONE',  ( 5.973405218792535184E-14, -1.763277458231359644E-15, 17.10851251684410101 ) ) ;
#50 = APPROVAL_DATE_TIME ( #125, #12 ) ;
#51 = ORIENTED_EDGE ( 'NONE', *, *, #56, .F. ) ;
#52 = AXIS2_PLACEMENT_3D ( 'NONE', #174, #228, #9 ) ;
#53 = APPROVAL ( #104, 'UNSPECIFIED' ) ;
#54 = CONICAL_SURFACE ( 'NONE', #190, 3.509999999999999343, 0.5235987755982939307 ) ;
#55 =( NAMED_UNIT ( * ) PLANE_ANGLE_UNIT ( ) SI_UNIT ( $, .RADIAN. ) );
#56 = EDGE_CURVE ( 'NONE', #146, #146, #211, .T. ) ;
#57 = CARTESIAN_POINT ( 'NONE',  ( 0.0000000000000000000, 0.0000000000000000000, 0.0000000000000000000 ) ) ;
#58 = CARTESIAN_POINT ( 'NONE',  ( 6.281823795492844412E-14, 2.999999999999988010, 17.99185842870425489 ) ) ;
#59 = FACE_OUTER_BOUND ( 'NONE', #234, .T. ) ;
#60 = PERSON_AND_ORGANIZATION ( #33, #142 ) ;
#61 = DIRECTION ( 'NONE',  ( -3.598472008923184252E-31, -1.000000000000000000, -1.030643345817079849E-16 ) ) ;
#62 = DIRECTION ( 'NONE',  ( 3.491481338843133355E-15, 4.780401361574244597E-16, 1.000000000000000000 ) ) ;
#63 = FACE_BOUND ( 'NONE', #140, .T. ) ;
#64 = AXIS2_PLACEMENT_3D ( 'NONE', #224, #43, #112 ) ;
#65 = APPROVAL_STATUS ( 'not_yet_approved' ) ;
#66 = DESIGN_CONTEXT ( 'detailed design', #8, 'design' ) ;
#67 = PRODUCT_DEFINITION_SHAPE ( 'NONE', 'NONE',  #206 ) ;
#68 = PERSON_AND_ORGANIZATION_ROLE ( 'creator' ) ;
#69 = AXIS2_PLACEMENT_3D ( 'NONE', #163, #17, #143 ) ;
#70 = CC_DESIGN_PERSON_AND_ORGANIZATION_ASSIGNMENT ( #175, #106, ( #201 ) ) ;
#71 = EDGE_LOOP ( 'NONE', ( #38 ) ) ;
#72 = LOCAL_TIME ( 7, 52, 53.00000000000000000, #196 ) ;
#73 = DIRECTION ( 'NONE',  ( -3.491481338843133355E-15, -4.780401361574244597E-16, -1.000000000000000000 ) ) ;
#74 = FACE_OUTER_BOUND ( 'NONE', #203, .T. ) ;
#75 =( GEOMETRIC_REPRESENTATION_CONTEXT ( 3 ) GLOBAL_UNCERTAINTY_ASSIGNED_CONTEXT ( ( #6 ) ) GLOBAL_UNIT_ASSIGNED_CONTEXT ( ( #22, #55, #96 ) ) REPRESENTATION_CONTEXT ( 'NONE', 'WORKASPACE' ) );
#76 = CARTESIAN_POINT ( 'NONE',  ( -2.736487320043113958E-30, 3.279059892324148073, -7.837611186974926640E-16 ) ) ;
#77 = DIRECTION ( 'NONE',  ( 1.000000000000000000, 0.0000000000000000000, 0.0000000000000000000 ) ) ;
#78 = MANIFOLD_SOLID_BREP ( 'Corps-Déplacer/Copier1[2]', #239 ) ;
#79 = CARTESIAN_POINT ( 'NONE',  ( 5.472974640086227916E-30, 7.493385437940894220E-31, 1.567522237394985328E-15 ) ) ;
#80 = CARTESIAN_POINT ( 'NONE',  ( 0.0000000000000000000, 0.0000000000000000000, 0.0000000000000000000 ) ) ;
#81 = AXIS2_PLACEMENT_3D ( 'NONE', #183, #73, #21 ) ;
#82 = CARTESIAN_POINT ( 'NONE',  ( 0.0000000000000000000, 0.0000000000000000000, 0.0000000000000000000 ) ) ;
#83 = PERSON_AND_ORGANIZATION_ROLE ( 'creator' ) ;
#84 = PERSON_AND_ORGANIZATION ( #33, #142 ) ;
#85 = COORDINATED_UNIVERSAL_TIME_OFFSET ( 1, 0, .AHEAD. ) ;
#86 = CYLINDRICAL_SURFACE ( 'NONE', #181, 3.509999999999993570 ) ;
#87 = ORIENTED_EDGE ( 'NONE', *, *, #231, .T. ) ;
#88 = AXIS2_PLACEMENT_3D ( 'NONE', #23, #118, #200 ) ;
#89 = EDGE_LOOP ( 'NONE', ( #87 ) ) ;
#90 = CALENDAR_DATE ( 2021, 26, 11 ) ;
#91 = SECURITY_CLASSIFICATION ( '', '', #48 ) ;
#92 = EDGE_LOOP ( 'NONE', ( #184 ) ) ;
#93 = VERTEX_POINT ( 'NONE', #207 ) ;
#94 = FACE_OUTER_BOUND ( 'NONE', #216, .T. ) ;
#95 = AXIS2_PLACEMENT_3D ( 'NONE', #76, #148, #168 ) ;
#96 =( NAMED_UNIT ( * ) SI_UNIT ( $, .STERADIAN. ) SOLID_ANGLE_UNIT ( ) );
#97 = ADVANCED_FACE ( 'NONE', ( #185, #226 ), #166, .T. ) ;
#98 = DIRECTION ( 'NONE',  ( -1.669068214611678140E-30, 1.000000000000000000, -4.780401361574244597E-16 ) ) ;
#99 = EDGE_CURVE ( 'NONE', #116, #116, #220, .T. ) ;
#100 = FACE_OUTER_BOUND ( 'NONE', #35, .T. ) ;
#101 = CALENDAR_DATE ( 2021, 26, 11 ) ;
#102 = DIRECTION ( 'NONE',  ( 0.0000000000000000000, 1.000000000000000000, 0.0000000000000000000 ) ) ;
#103 = ADVANCED_FACE ( 'NONE', ( #59, #20 ), #18, .T. ) ;
#104 = APPROVAL_STATUS ( 'not_yet_approved' ) ;
#105 = APPROVAL_PERSON_ORGANIZATION ( #158, #53, #5 ) ;
#106 = PERSON_AND_ORGANIZATION_ROLE ( 'design_supplier' ) ;
#107 = EDGE_LOOP ( 'NONE', ( #161 ) ) ;
#108 = ADVANCED_FACE ( 'NONE', ( #94 ), #240, .T. ) ;
#109 = ADVANCED_FACE ( 'NONE', ( #128, #205 ), #54, .T. ) ;
#110 = APPROVAL_PERSON_ORGANIZATION ( #60, #12, #170 ) ;
#111 = EDGE_LOOP ( 'NONE', ( #144 ) ) ;
#112 = DIRECTION ( 'NONE',  ( 0.0000000000000000000, 1.000000000000000000, 0.0000000000000000000 ) ) ;
#113 = CC_DESIGN_PERSON_AND_ORGANIZATION_ASSIGNMENT ( #173, #83, ( #201 ) ) ;
#114 = CARTESIAN_POINT ( 'NONE',  ( 3.526396152231565067E-13, 2.399999999999985700, 101.0000000000000000 ) ) ;
#115 = DIRECTION ( 'NONE',  ( -3.491481338843133355E-15, -4.780401361574244597E-16, -1.000000000000000000 ) ) ;
#116 = VERTEX_POINT ( 'NONE', #219 ) ;
#117 = DIRECTION ( 'NONE',  ( 3.491481338843133355E-15, -1.030643345817079849E-16, 1.000000000000000000 ) ) ;
#118 = DIRECTION ( 'NONE',  ( -3.491481338843133355E-15, 1.030643345817079849E-16, -1.000000000000000000 ) ) ;
#119 = AXIS2_PLACEMENT_3D ( 'NONE', #57, #149, #41 ) ;
#120 = DIRECTION ( 'NONE',  ( 1.669068214611678140E-30, -1.000000000000000000, 4.780401361574244597E-16 ) ) ;
#121 = DIRECTION ( 'NONE',  ( -3.491481338843133355E-15, -4.780401361574244597E-16, -1.000000000000000000 ) ) ;
#122 = COORDINATED_UNIVERSAL_TIME_OFFSET ( 1, 0, .AHEAD. ) ;
#123 = LOCAL_TIME ( 7, 52, 53.00000000000000000, #243 ) ;
#124 = APPROVAL_DATE_TIME ( #178, #53 ) ;
#125 = DATE_AND_TIME ( #90, #123 ) ;
#126 = CARTESIAN_POINT ( 'NONE',  ( 3.526396152231565067E-13, -1.040949779275250653E-14, 101.0000000000000000 ) ) ;
#127 = CARTESIAN_POINT ( 'NONE',  ( 3.526396152231565067E-13, -1.040949779275250653E-14, 101.0000000000000000 ) ) ;
#128 = FACE_BOUND ( 'NONE', #236, .T. ) ;
#129 = CARTESIAN_POINT ( 'NONE',  ( 3.505447264198505636E-13, 2.999999999999985789, 100.4000000000000057 ) ) ;
#130 = CC_DESIGN_PERSON_AND_ORGANIZATION_ASSIGNMENT ( #45, #242, ( #198 ) ) ;
#131 = CARTESIAN_POINT ( 'NONE',  ( 5.472974640086227916E-30, 7.493385437940894220E-31, 1.567522237394985328E-15 ) ) ;
#132 = CLOSED_SHELL ( 'NONE', ( #197, #97, #103, #109, #11 ) ) ;
#133 = DIRECTION ( 'NONE',  ( -3.491481338843133355E-15, 1.030643345817079849E-16, -1.000000000000000000 ) ) ;
#134 = PERSON_AND_ORGANIZATION ( #33, #142 ) ;
#135 = ORIENTED_EDGE ( 'NONE', *, *, #99, .T. ) ;
#136 = DATE_AND_TIME ( #137, #139 ) ;
#137 = CALENDAR_DATE ( 2021, 26, 11 ) ;
#138 = DATE_AND_TIME ( #101, #217 ) ;
#139 = LOCAL_TIME ( 7, 52, 53.00000000000000000, #160 ) ;
#140 = EDGE_LOOP ( 'NONE', ( #34 ) ) ;
#141 = EDGE_CURVE ( 'NONE', #223, #223, #145, .T. ) ;
#142 = ORGANIZATION ( 'UNSPECIFIED', 'UNSPECIFIED', '' ) ;
#143 = DIRECTION ( 'NONE',  ( 0.0000000000000000000, 1.000000000000000000, 0.0000000000000000000 ) ) ;
#144 = ORIENTED_EDGE ( 'NONE', *, *, #141, .F. ) ;
#145 = CIRCLE ( 'NONE', #19, 3.509999999999989129 ) ;
#146 = VERTEX_POINT ( 'NONE', #114 ) ;
#147 = EDGE_CURVE ( 'NONE', #189, #189, #155, .T. ) ;
#148 = DIRECTION ( 'NONE',  ( -3.491481338843133355E-15, -4.780401361574244597E-16, -1.000000000000000000 ) ) ;
#149 = DIRECTION ( 'NONE',  ( -3.491481338843133355E-15, 1.030643345817079849E-16, -1.000000000000000000 ) ) ;
#150 = CC_DESIGN_DATE_AND_TIME_ASSIGNMENT ( #138, #193, ( #91 ) ) ;
#151 = AXIS2_PLACEMENT_3D ( 'NONE', #131, #152, #194 ) ;
#152 = DIRECTION ( 'NONE',  ( 3.491481338843133355E-15, 4.780401361574244597E-16, 1.000000000000000000 ) ) ;
#153 = DIRECTION ( 'NONE',  ( -3.491481338843133355E-15, -4.780401361574244597E-16, -1.000000000000000000 ) ) ;
#154 = DATE_TIME_ROLE ( 'creation_date' ) ;
#155 = CIRCLE ( 'NONE', #52, 2.999999999999989786 ) ;
#156 = SHAPE_DEFINITION_REPRESENTATION ( #67, #237 ) ;
#157 = EDGE_LOOP ( 'NONE', ( #179 ) ) ;
#158 = PERSON_AND_ORGANIZATION ( #33, #142 ) ;
#159 = DIRECTION ( 'NONE',  ( -1.669068214611678140E-30, 1.000000000000000000, -4.780401361574244597E-16 ) ) ;
#160 = COORDINATED_UNIVERSAL_TIME_OFFSET ( 1, 0, .AHEAD. ) ;
#161 = ORIENTED_EDGE ( 'NONE', *, *, #215, .F. ) ;
#162 = CC_DESIGN_APPROVAL ( #12, ( #206 ) ) ;
#163 = CARTESIAN_POINT ( 'NONE',  ( 3.505447264198505636E-13, -1.034765919200348261E-14, 100.4000000000000057 ) ) ;
#164 = VERTEX_POINT ( 'NONE', #129 ) ;
#165 = APPLICATION_CONTEXT ( 'configuration controlled 3d designs of mechanical parts and assemblies' ) ;
#166 = CONICAL_SURFACE ( 'NONE', #64, 2.999999999999996003, 0.7853981633974453924 ) ;
#167 = DIRECTION ( 'NONE',  ( 0.0000000000000000000, 1.000000000000000000, 0.0000000000000000000 ) ) ;
#168 = DIRECTION ( 'NONE',  ( -1.669068214611678140E-30, 1.000000000000000000, -4.780401361574244597E-16 ) ) ;
#169 = ADVANCED_FACE ( 'NONE', ( #47, #63 ), #186, .T. ) ;
#170 = APPROVAL_ROLE ( '' ) ;
#171 = AXIS2_PLACEMENT_3D ( 'NONE', #24, #62, #120 ) ;
#172 = PLANE ( 'NONE',  #37 ) ;
#173 = PERSON_AND_ORGANIZATION ( #33, #142 ) ;
#174 = CARTESIAN_POINT ( 'NONE',  ( 6.281823795492844412E-14, -1.854318916842698141E-15, 17.99185842870425489 ) ) ;
#175 = PERSON_AND_ORGANIZATION ( #33, #142 ) ;
#176 = CC_DESIGN_APPROVAL ( #25, ( #91 ) ) ;
#177 = ADVANCED_FACE ( 'NONE', ( #210, #26 ), #86, .T. ) ;
#178 = DATE_AND_TIME ( #199, #2 ) ;
#179 = ORIENTED_EDGE ( 'NONE', *, *, #231, .F. ) ;
#180 = AXIS2_PLACEMENT_3D ( 'NONE', #222, #241, #204 ) ;
#181 = AXIS2_PLACEMENT_3D ( 'NONE', #82, #153, #159 ) ;
#182 = PRODUCT_RELATED_PRODUCT_CATEGORY ( 'detail', '', ( #198 ) ) ;
#183 = CARTESIAN_POINT ( 'NONE',  ( 1.396592535537259061E-15, 1.912160544629705875E-16, 0.4000000000000016320 ) ) ;
#184 = ORIENTED_EDGE ( 'NONE', *, *, #141, .T. ) ;
#185 = FACE_BOUND ( 'NONE', #14, .T. ) ;
#186 = CONICAL_SURFACE ( 'NONE', #151, 3.279059892324148073, 0.5235987755982978165 ) ;
#187 = DIRECTION ( 'NONE',  ( -3.491481338843133355E-15, 1.030643345817079849E-16, -1.000000000000000000 ) ) ;
#188 = CC_DESIGN_PERSON_AND_ORGANIZATION_ASSIGNMENT ( #84, #68, ( #206 ) ) ;
#189 = VERTEX_POINT ( 'NONE', #58 ) ;
#190 = AXIS2_PLACEMENT_3D ( 'NONE', #49, #133, #3 ) ;
#191 = FACE_OUTER_BOUND ( 'NONE', #111, .T. ) ;
#192 = ADVANCED_FACE ( 'NONE', ( #191 ), #227, .T. ) ;
#193 = DATE_TIME_ROLE ( 'classification_date' ) ;
#194 = DIRECTION ( 'NONE',  ( 1.669068214611678140E-30, -1.000000000000000000, 4.780401361574244597E-16 ) ) ;
#195 = APPROVAL_ROLE ( '' ) ;
#196 = COORDINATED_UNIVERSAL_TIME_OFFSET ( 1, 0, .AHEAD. ) ;
#197 = ADVANCED_FACE ( 'NONE', ( #100 ), #172, .T. ) ;
#198 = PRODUCT ( '341751', '341751', '', ( #235 ) ) ;
#199 = CALENDAR_DATE ( 2021, 26, 11 ) ;
#200 = DIRECTION ( 'NONE',  ( 3.598472008923184252E-31, 1.000000000000000000, 1.030643345817079849E-16 ) ) ;
#201 = PRODUCT_DEFINITION_FORMATION_WITH_SPECIFIED_SOURCE ( 'ANY', '', #198, .NOT_KNOWN. ) ;
#202 = AXIS2_PLACEMENT_3D ( 'NONE', #126, #187, #167 ) ;
#203 = EDGE_LOOP ( 'NONE', ( #135 ) ) ;
#204 = DIRECTION ( 'NONE',  ( 0.0000000000000000000, 1.000000000000000000, 0.0000000000000000000 ) ) ;
#205 = FACE_OUTER_BOUND ( 'NONE', #27, .T. ) ;
#206 = PRODUCT_DEFINITION ( 'UNKNOWN', '', #201, #66 ) ;
#207 = CARTESIAN_POINT ( 'NONE',  ( 0.0000000000000000000, 3.279059892324148073, 0.0000000000000000000 ) ) ;
#208 = DIRECTION ( 'NONE',  ( 0.0000000000000000000, 0.0000000000000000000, 1.000000000000000000 ) ) ;
#209 = CC_DESIGN_APPROVAL ( #53, ( #201 ) ) ;
#210 = FACE_OUTER_BOUND ( 'NONE', #92, .T. ) ;
#211 = CIRCLE ( 'NONE', #202, 2.399999999999996358 ) ;
#212 = CARTESIAN_POINT ( 'NONE',  ( 5.973405218792535184E-14, 8.178555653003154922E-15, 17.10851251684410101 ) ) ;
#213 = ORIENTED_EDGE ( 'NONE', *, *, #99, .F. ) ;
#214 = PERSON_AND_ORGANIZATION ( #33, #142 ) ;
#215 = EDGE_CURVE ( 'NONE', #164, #164, #1, .T. ) ;
#216 = EDGE_LOOP ( 'NONE', ( #221 ) ) ;
#217 = LOCAL_TIME ( 7, 52, 53.00000000000000000, #85 ) ;
#218 = PLANE ( 'NONE',  #88 ) ;
#219 = CARTESIAN_POINT ( 'NONE',  ( 5.973405218792535184E-14, 3.509999999999997566, 17.10851251684410101 ) ) ;
#220 = CIRCLE ( 'NONE', #180, 3.509999999999999343 ) ;
#221 = ORIENTED_EDGE ( 'NONE', *, *, #40, .T. ) ;
#222 = CARTESIAN_POINT ( 'NONE',  ( 5.973405218792535184E-14, -1.763277458231359644E-15, 17.10851251684410101 ) ) ;
#223 = VERTEX_POINT ( 'NONE', #44 ) ;
#224 = CARTESIAN_POINT ( 'NONE',  ( 3.505447264198505636E-13, -1.034765919200348261E-14, 100.4000000000000057 ) ) ;
#225 = APPLICATION_PROTOCOL_DEFINITION ( 'international standard', 'config_control_design', 1994, #8 ) ;
#226 = FACE_OUTER_BOUND ( 'NONE', #107, .T. ) ;
#227 = PLANE ( 'NONE',  #171 ) ;
#228 = DIRECTION ( 'NONE',  ( -3.491481338843133355E-15, 1.030643345817079849E-16, -1.000000000000000000 ) ) ;
#229 = CC_DESIGN_DATE_AND_TIME_ASSIGNMENT ( #28, #154, ( #206 ) ) ;
#230 = APPROVAL_DATE_TIME ( #136, #25 ) ;
#231 = EDGE_CURVE ( 'NONE', #15, #15, #16, .T. ) ;
#232 = MANIFOLD_SOLID_BREP ( 'Corps-Déplacer/Copier1[1]', #132 ) ;
#233 = ORIENTED_EDGE ( 'NONE', *, *, #215, .T. ) ;
#234 = EDGE_LOOP ( 'NONE', ( #233 ) ) ;
#235 = MECHANICAL_CONTEXT ( 'NONE', #165, 'mechanical' ) ;
#236 = EDGE_LOOP ( 'NONE', ( #31 ) ) ;
#237 = ADVANCED_BREP_SHAPE_REPRESENTATION ( '341751', ( #232, #78, #39 ), #75 ) ;
#238 = CARTESIAN_POINT ( 'NONE',  ( 1.396592535537253342E-15, 3.509999999999998010, 0.3999999999999999667 ) ) ;
#239 = CLOSED_SHELL ( 'NONE', ( #192, #177, #169, #108 ) ) ;
#240 = PLANE ( 'NONE',  #95 ) ;
#241 = DIRECTION ( 'NONE',  ( -3.491481338843133355E-15, 1.030643345817079849E-16, -1.000000000000000000 ) ) ;
#242 = PERSON_AND_ORGANIZATION_ROLE ( 'design_owner' ) ;
#243 = COORDINATED_UNIVERSAL_TIME_OFFSET ( 1, 0, .AHEAD. ) ;
ENDSEC;
END-ISO-10303-21;
