ISO-10303-21;
HEADER;
FILE_DESCRIPTION (( 'STEP AP203' ),
    '1' );
FILE_NAME ('341750.step',
    '2021-11-26T06:52:53',
    ( '' ),
    ( '' ),
    'SwSTEP 2.0',
    'SolidWorks 2019',
    '' );
FILE_SCHEMA (( 'CONFIG_CONTROL_DESIGN' ));
ENDSEC;

DATA;
#1 = PLANE ( 'NONE',  #31 ) ;
#2 = CARTESIAN_POINT ( 'NONE',  ( 3.505447264198505636E-13, 2.999999999999985789, 100.4000000000000057 ) ) ;
#3 = CC_DESIGN_PERSON_AND_ORGANIZATION_ASSIGNMENT ( #207, #115, ( #75 ) ) ;
#4 = UNCERTAINTY_MEASURE_WITH_UNIT (LENGTH_MEASURE( 1.000000000000000082E-05 ), #91, 'distance_accuracy_value', 'NONE');
#5 = ORIENTED_EDGE ( 'NONE', *, *, #66, .F. ) ;
#6 = EDGE_LOOP ( 'NONE', ( #77 ) ) ;
#7 = AXIS2_PLACEMENT_3D ( 'NONE', #37, #20, #92 ) ;
#8 = ADVANCED_FACE ( 'NONE', ( #141, #203 ), #17, .T. ) ;
#9 = DATE_AND_TIME ( #85, #41 ) ;
#10 = COORDINATED_UNIVERSAL_TIME_OFFSET ( 1, 0, .AHEAD. ) ;
#11 = CALENDAR_DATE ( 2021, 26, 11 ) ;
#12 = DATE_TIME_ROLE ( 'creation_date' ) ;
#13 = AXIS2_PLACEMENT_3D ( 'NONE', #185, #70, #144 ) ;
#14 = DIRECTION ( 'NONE',  ( -3.491481338843133355E-15, -4.776743573234622319E-16, -1.000000000000000000 ) ) ;
#15 = DIRECTION ( 'NONE',  ( 0.0000000000000000000, 1.000000000000000000, 0.0000000000000000000 ) ) ;
#16 = DIRECTION ( 'NONE',  ( -3.491481338843133355E-15, 1.030643345817079849E-16, -1.000000000000000000 ) ) ;
#17 = CYLINDRICAL_SURFACE ( 'NONE', #117, 2.999999999999993339 ) ;
#18 = VERTEX_POINT ( 'NONE', #113 ) ;
#19 = CC_DESIGN_SECURITY_CLASSIFICATION ( #210, ( #124 ) ) ;
#20 = DIRECTION ( 'NONE',  ( 0.0000000000000000000, 0.0000000000000000000, 1.000000000000000000 ) ) ;
#21 = CIRCLE ( 'NONE', #213, 2.999999999999996003 ) ;
#22 = VERTEX_POINT ( 'NONE', #119 ) ;
#23 = APPROVAL ( #193, 'UNSPECIFIED' ) ;
#24 = EDGE_LOOP ( 'NONE', ( #59 ) ) ;
#25 = CIRCLE ( 'NONE', #158, 2.399999999999996358 ) ;
#26 = EDGE_LOOP ( 'NONE', ( #40 ) ) ;
#27 = APPROVAL_ROLE ( '' ) ;
#28 = CALENDAR_DATE ( 2021, 26, 11 ) ;
#29 = ORGANIZATION ( 'UNSPECIFIED', 'UNSPECIFIED', '' ) ;
#30 = DIRECTION ( 'NONE',  ( 3.491481338843133355E-15, 4.776743573234622319E-16, 1.000000000000000000 ) ) ;
#31 = AXIS2_PLACEMENT_3D ( 'NONE', #204, #99, #56 ) ;
#32 = CARTESIAN_POINT ( 'NONE',  ( 3.505447264198505636E-13, -1.034765919200348261E-14, 100.4000000000000057 ) ) ;
#33 = EDGE_CURVE ( 'NONE', #36, #36, #21, .T. ) ;
#34 = FACE_OUTER_BOUND ( 'NONE', #118, .T. ) ;
#35 = DIRECTION ( 'NONE',  ( 0.0000000000000000000, 1.000000000000000000, 0.0000000000000000000 ) ) ;
#36 = VERTEX_POINT ( 'NONE', #2 ) ;
#37 = CARTESIAN_POINT ( 'NONE',  ( 0.0000000000000000000, 0.0000000000000000000, 0.0000000000000000000 ) ) ;
#38 = CC_DESIGN_APPROVAL ( #206, ( #237 ) ) ;
#39 = MECHANICAL_CONTEXT ( 'NONE', #51, 'mechanical' ) ;
#40 = ORIENTED_EDGE ( 'NONE', *, *, #202, .F. ) ;
#41 = LOCAL_TIME ( 7, 52, 53.00000000000000000, #239 ) ;
#42 = EDGE_LOOP ( 'NONE', ( #151 ) ) ;
#43 = ADVANCED_FACE ( 'NONE', ( #223, #129 ), #53, .T. ) ;
#44 = CARTESIAN_POINT ( 'NONE',  ( 5.976428930328812058E-14, 3.504999999999997673, 17.11717277088194678 ) ) ;
#45 = CONICAL_SURFACE ( 'NONE', #169, 3.274059892324147292, 0.5235987755982978165 ) ;
#46 = APPROVAL_DATE_TIME ( #102, #206 ) ;
#47 = APPROVAL_DATE_TIME ( #215, #184 ) ;
#48 = PLANE ( 'NONE',  #84 ) ;
#49 = PERSON_AND_ORGANIZATION_ROLE ( 'creator' ) ;
#50 = DIRECTION ( 'NONE',  ( -3.491481338843133355E-15, -4.776743573234622319E-16, -1.000000000000000000 ) ) ;
#51 = APPLICATION_CONTEXT ( 'configuration controlled 3d designs of mechanical parts and assemblies' ) ;
#52 = PLANE ( 'NONE',  #155 ) ;
#53 = CYLINDRICAL_SURFACE ( 'NONE', #94, 3.504999999999993232 ) ;
#54 = PRODUCT_RELATED_PRODUCT_CATEGORY ( 'detail', '', ( #75 ) ) ;
#55 = CARTESIAN_POINT ( 'NONE',  ( 0.0000000000000000000, 0.0000000000000000000, 0.0000000000000000000 ) ) ;
#56 = DIRECTION ( 'NONE',  ( 3.598472008923184252E-31, 1.000000000000000000, 1.030643345817079849E-16 ) ) ;
#57 = CARTESIAN_POINT ( 'NONE',  ( -6.842277657836020854E-46, 3.274059892324147292, 0.0000000000000000000 ) ) ;
#58 = DESIGN_CONTEXT ( 'detailed design', #88, 'design' ) ;
#59 = ORIENTED_EDGE ( 'NONE', *, *, #93, .F. ) ;
#60 = ORIENTED_EDGE ( 'NONE', *, *, #33, .T. ) ;
#61 = LOCAL_TIME ( 7, 52, 53.00000000000000000, #10 ) ;
#62 = DIRECTION ( 'NONE',  ( -3.491481338843133355E-15, 1.030643345817079849E-16, -1.000000000000000000 ) ) ;
#63 = AXIS2_PLACEMENT_3D ( 'NONE', #161, #71, #240 ) ;
#64 = PERSON_AND_ORGANIZATION ( #205, #29 ) ;
#65 = CALENDAR_DATE ( 2021, 26, 11 ) ;
#66 = EDGE_CURVE ( 'NONE', #165, #165, #236, .T. ) ;
#67 = DIRECTION ( 'NONE',  ( 1.667791104638755226E-30, -1.000000000000000000, 4.776743573234622319E-16 ) ) ;
#68 = CARTESIAN_POINT ( 'NONE',  ( 0.0000000000000000000, 0.0000000000000000000, 0.0000000000000000000 ) ) ;
#69 = ADVANCED_FACE ( 'NONE', ( #198 ), #131, .T. ) ;
#70 = DIRECTION ( 'NONE',  ( 3.491481338843133355E-15, 4.776743573234622319E-16, 1.000000000000000000 ) ) ;
#71 = DIRECTION ( 'NONE',  ( -3.491481338843133355E-15, -4.776743573234622319E-16, -1.000000000000000000 ) ) ;
#72 = APPROVAL_PERSON_ORGANIZATION ( #95, #206, #238 ) ;
#73 = APPLICATION_PROTOCOL_DEFINITION ( 'international standard', 'config_control_design', 1994, #51 ) ;
#74 = CC_DESIGN_DATE_AND_TIME_ASSIGNMENT ( #106, #81, ( #210 ) ) ;
#75 = PRODUCT ( '341750', '341750', '', ( #39 ) ) ;
#76 = CC_DESIGN_PERSON_AND_ORGANIZATION_ASSIGNMENT ( #195, #83, ( #124 ) ) ;
#77 = ORIENTED_EDGE ( 'NONE', *, *, #221, .F. ) ;
#78 = ORIENTED_EDGE ( 'NONE', *, *, #221, .T. ) ;
#79 = CONICAL_SURFACE ( 'NONE', #187, 3.504999999999999449, 0.5235987755982935976 ) ;
#80 = FACE_OUTER_BOUND ( 'NONE', #190, .T. ) ;
#81 = DATE_TIME_ROLE ( 'classification_date' ) ;
#82 = ADVANCED_BREP_SHAPE_REPRESENTATION ( '341750', ( #224, #225, #7 ), #219 ) ;
#83 = PERSON_AND_ORGANIZATION_ROLE ( 'design_supplier' ) ;
#84 = AXIS2_PLACEMENT_3D ( 'NONE', #130, #242, #89 ) ;
#85 = CALENDAR_DATE ( 2021, 26, 11 ) ;
#86 = DIRECTION ( 'NONE',  ( -3.491481338843133355E-15, 1.030643345817079849E-16, -1.000000000000000000 ) ) ;
#87 = DIRECTION ( 'NONE',  ( -1.648442177792214609E-30, 1.000000000000000000, -4.794617310563575137E-16 ) ) ;
#88 = APPLICATION_CONTEXT ( 'configuration controlled 3d designs of mechanical parts and assemblies' ) ;
#89 = DIRECTION ( 'NONE',  ( -3.598472008923184252E-31, -1.000000000000000000, -1.030643345817079849E-16 ) ) ;
#90 = FACE_BOUND ( 'NONE', #26, .T. ) ;
#91 =( LENGTH_UNIT ( ) NAMED_UNIT ( * ) SI_UNIT ( .MILLI., .METRE. ) );
#92 = DIRECTION ( 'NONE',  ( 1.000000000000000000, 0.0000000000000000000, 0.0000000000000000000 ) ) ;
#93 = EDGE_CURVE ( 'NONE', #22, #22, #25, .T. ) ;
#94 = AXIS2_PLACEMENT_3D ( 'NONE', #55, #50, #200 ) ;
#95 = PERSON_AND_ORGANIZATION ( #205, #29 ) ;
#96 = CC_DESIGN_DATE_AND_TIME_ASSIGNMENT ( #194, #12, ( #237 ) ) ;
#97 = ORIENTED_EDGE ( 'NONE', *, *, #156, .T. ) ;
#98 = EDGE_LOOP ( 'NONE', ( #173 ) ) ;
#99 = DIRECTION ( 'NONE',  ( -3.491481338843133355E-15, 1.030643345817079849E-16, -1.000000000000000000 ) ) ;
#100 = PERSON_AND_ORGANIZATION ( #205, #29 ) ;
#101 = COORDINATED_UNIVERSAL_TIME_OFFSET ( 1, 0, .AHEAD. ) ;
#102 = DATE_AND_TIME ( #120, #114 ) ;
#103 = EDGE_CURVE ( 'NONE', #154, #154, #108, .T. ) ;
#104 = APPROVAL_PERSON_ORGANIZATION ( #100, #184, #216 ) ;
#105 = CLOSED_SHELL ( 'NONE', ( #69, #43, #122, #181 ) ) ;
#106 = DATE_AND_TIME ( #28, #235 ) ;
#107 = CARTESIAN_POINT ( 'NONE',  ( 3.505447264198505636E-13, -1.034765919200348261E-14, 100.4000000000000057 ) ) ;
#108 = CIRCLE ( 'NONE', #149, 3.504999999999997229 ) ;
#109 = CARTESIAN_POINT ( 'NONE',  ( 1.396592535537259061E-15, 1.910697429293856816E-16, 0.4000000000000016320 ) ) ;
#110 = DIRECTION ( 'NONE',  ( 0.0000000000000000000, 1.000000000000000000, 0.0000000000000000000 ) ) ;
#111 = CARTESIAN_POINT ( 'NONE',  ( 3.526396152231565067E-13, -1.040949779275250653E-14, 101.0000000000000000 ) ) ;
#112 = DIRECTION ( 'NONE',  ( 0.0000000000000000000, 1.000000000000000000, 0.0000000000000000000 ) ) ;
#113 = CARTESIAN_POINT ( 'NONE',  ( 6.281823795492844412E-14, 2.999999999999988010, 17.99185842870425489 ) ) ;
#114 = LOCAL_TIME ( 7, 52, 53.00000000000000000, #157 ) ;
#115 = PERSON_AND_ORGANIZATION_ROLE ( 'design_owner' ) ;
#116 = EDGE_LOOP ( 'NONE', ( #171 ) ) ;
#117 = AXIS2_PLACEMENT_3D ( 'NONE', #68, #127, #162 ) ;
#118 = EDGE_LOOP ( 'NONE', ( #234 ) ) ;
#119 = CARTESIAN_POINT ( 'NONE',  ( 3.526396152231565067E-13, 2.399999999999985700, 101.0000000000000000 ) ) ;
#120 = CALENDAR_DATE ( 2021, 26, 11 ) ;
#121 = APPROVAL_STATUS ( 'not_yet_approved' ) ;
#122 = ADVANCED_FACE ( 'NONE', ( #34, #90 ), #45, .T. ) ;
#123 = SHAPE_DEFINITION_REPRESENTATION ( #192, #82 ) ;
#124 = PRODUCT_DEFINITION_FORMATION_WITH_SPECIFIED_SOURCE ( 'ANY', '', #75, .NOT_KNOWN. ) ;
#125 = FACE_OUTER_BOUND ( 'NONE', #42, .T. ) ;
#126 = SECURITY_CLASSIFICATION_LEVEL ( 'unclassified' ) ;
#127 = DIRECTION ( 'NONE',  ( -3.491481338843133355E-15, 1.030643345817079849E-16, -1.000000000000000000 ) ) ;
#128 = CIRCLE ( 'NONE', #243, 3.274059892324147292 ) ;
#129 = FACE_OUTER_BOUND ( 'NONE', #209, .T. ) ;
#130 = CARTESIAN_POINT ( 'NONE',  ( 3.526396152231565067E-13, -1.040949779275250653E-14, 101.0000000000000000 ) ) ;
#131 = PLANE ( 'NONE',  #13 ) ;
#132 = EDGE_LOOP ( 'NONE', ( #60 ) ) ;
#133 = LOCAL_TIME ( 7, 52, 53.00000000000000000, #214 ) ;
#134 = CLOSED_SHELL ( 'NONE', ( #138, #172, #8, #232, #208 ) ) ;
#135 = EDGE_LOOP ( 'NONE', ( #97 ) ) ;
#136 = DIRECTION ( 'NONE',  ( 0.0000000000000000000, 1.000000000000000000, 0.0000000000000000000 ) ) ;
#137 = AXIS2_PLACEMENT_3D ( 'NONE', #107, #222, #110 ) ;
#138 = ADVANCED_FACE ( 'NONE', ( #183 ), #48, .T. ) ;
#139 = PERSON_AND_ORGANIZATION_ROLE ( 'classification_officer' ) ;
#140 = PERSON_AND_ORGANIZATION ( #205, #29 ) ;
#141 = FACE_OUTER_BOUND ( 'NONE', #132, .T. ) ;
#142 = APPROVAL_STATUS ( 'not_yet_approved' ) ;
#143 = CARTESIAN_POINT ( 'NONE',  ( 5.460447964472733444E-30, 7.470513856425077110E-31, 1.563934454904460997E-15 ) ) ;
#144 = DIRECTION ( 'NONE',  ( 1.667791104638755226E-30, -1.000000000000000000, 4.776743573234622319E-16 ) ) ;
#145 = DIRECTION ( 'NONE',  ( -3.491481338843133355E-15, -4.776743573234622319E-16, -1.000000000000000000 ) ) ;
#146 = FACE_BOUND ( 'NONE', #98, .T. ) ;
#147 = VERTEX_POINT ( 'NONE', #57 ) ;
#148 = VERTEX_POINT ( 'NONE', #174 ) ;
#149 = AXIS2_PLACEMENT_3D ( 'NONE', #109, #145, #87 ) ;
#150 = ORIENTED_EDGE ( 'NONE', *, *, #156, .F. ) ;
#151 = ORIENTED_EDGE ( 'NONE', *, *, #33, .F. ) ;
#152 = AXIS2_PLACEMENT_3D ( 'NONE', #212, #229, #136 ) ;
#153 = EDGE_LOOP ( 'NONE', ( #78 ) ) ;
#154 = VERTEX_POINT ( 'NONE', #227 ) ;
#155 = AXIS2_PLACEMENT_3D ( 'NONE', #182, #14, #160 ) ;
#156 = EDGE_CURVE ( 'NONE', #148, #148, #228, .T. ) ;
#157 = COORDINATED_UNIVERSAL_TIME_OFFSET ( 1, 0, .AHEAD. ) ;
#158 = AXIS2_PLACEMENT_3D ( 'NONE', #111, #86, #15 ) ;
#159 = PERSON_AND_ORGANIZATION ( #205, #29 ) ;
#160 = DIRECTION ( 'NONE',  ( -1.667791104638755226E-30, 1.000000000000000000, -4.776743573234622319E-16 ) ) ;
#161 = CARTESIAN_POINT ( 'NONE',  ( 5.976428930328812058E-14, 8.176434502525700100E-15, 17.11717277088194678 ) ) ;
#162 = DIRECTION ( 'NONE',  ( 3.598472008923184252E-31, 1.000000000000000000, 1.030643345817079726E-16 ) ) ;
#163 = CC_DESIGN_PERSON_AND_ORGANIZATION_ASSIGNMENT ( #140, #176, ( #124 ) ) ;
#164 = DIRECTION ( 'NONE',  ( -3.491481338843133355E-15, 1.030643345817079849E-16, -1.000000000000000000 ) ) ;
#165 = VERTEX_POINT ( 'NONE', #44 ) ;
#166 = APPROVAL_PERSON_ORGANIZATION ( #177, #23, #27 ) ;
#167 =( NAMED_UNIT ( * ) SI_UNIT ( $, .STERADIAN. ) SOLID_ANGLE_UNIT ( ) );
#168 =( NAMED_UNIT ( * ) PLANE_ANGLE_UNIT ( ) SI_UNIT ( $, .RADIAN. ) );
#169 = AXIS2_PLACEMENT_3D ( 'NONE', #226, #30, #67 ) ;
#170 = CARTESIAN_POINT ( 'NONE',  ( 5.976428930328812058E-14, -1.764170021551078453E-15, 17.11717277088194678 ) ) ;
#171 = ORIENTED_EDGE ( 'NONE', *, *, #66, .T. ) ;
#172 = ADVANCED_FACE ( 'NONE', ( #146, #125 ), #199, .T. ) ;
#173 = ORIENTED_EDGE ( 'NONE', *, *, #93, .T. ) ;
#174 = CARTESIAN_POINT ( 'NONE',  ( 5.976428930328812058E-14, 3.504999999999997673, 17.11717277088194678 ) ) ;
#175 = CC_DESIGN_PERSON_AND_ORGANIZATION_ASSIGNMENT ( #159, #49, ( #237 ) ) ;
#176 = PERSON_AND_ORGANIZATION_ROLE ( 'creator' ) ;
#177 = PERSON_AND_ORGANIZATION ( #205, #29 ) ;
#178 = CC_DESIGN_APPROVAL ( #23, ( #124 ) ) ;
#179 = AXIS2_PLACEMENT_3D ( 'NONE', #217, #164, #35 ) ;
#180 = FACE_OUTER_BOUND ( 'NONE', #233, .T. ) ;
#181 = ADVANCED_FACE ( 'NONE', ( #180 ), #52, .T. ) ;
#182 = CARTESIAN_POINT ( 'NONE',  ( -2.730223982236366722E-30, 3.274059892324147292, -7.819672274522304984E-16 ) ) ;
#183 = FACE_OUTER_BOUND ( 'NONE', #24, .T. ) ;
#184 = APPROVAL ( #142, 'UNSPECIFIED' ) ;
#185 = CARTESIAN_POINT ( 'NONE',  ( 5.976428930328813320E-14, 8.176434502525703255E-15, 17.11717277088194678 ) ) ;
#186 = FACE_OUTER_BOUND ( 'NONE', #116, .T. ) ;
#187 = AXIS2_PLACEMENT_3D ( 'NONE', #170, #62, #112 ) ;
#188 = APPLICATION_PROTOCOL_DEFINITION ( 'international standard', 'config_control_design', 1994, #88 ) ;
#189 = CC_DESIGN_PERSON_AND_ORGANIZATION_ASSIGNMENT ( #64, #139, ( #210 ) ) ;
#190 = EDGE_LOOP ( 'NONE', ( #5 ) ) ;
#191 = ORIENTED_EDGE ( 'NONE', *, *, #103, .F. ) ;
#192 = PRODUCT_DEFINITION_SHAPE ( 'NONE', 'NONE',  #237 ) ;
#193 = APPROVAL_STATUS ( 'not_yet_approved' ) ;
#194 = DATE_AND_TIME ( #11, #61 ) ;
#195 = PERSON_AND_ORGANIZATION ( #205, #29 ) ;
#196 = CC_DESIGN_APPROVAL ( #184, ( #210 ) ) ;
#197 = CIRCLE ( 'NONE', #152, 2.999999999999989786 ) ;
#198 = FACE_OUTER_BOUND ( 'NONE', #211, .T. ) ;
#199 = CONICAL_SURFACE ( 'NONE', #137, 2.999999999999996003, 0.7853981633974453924 ) ;
#200 = DIRECTION ( 'NONE',  ( -1.667791104638755226E-30, 1.000000000000000000, -4.776743573234622319E-16 ) ) ;
#201 = DIRECTION ( 'NONE',  ( 0.0000000000000000000, 1.000000000000000000, 0.0000000000000000000 ) ) ;
#202 = EDGE_CURVE ( 'NONE', #147, #147, #128, .T. ) ;
#203 = FACE_OUTER_BOUND ( 'NONE', #6, .T. ) ;
#204 = CARTESIAN_POINT ( 'NONE',  ( 5.976428930328813320E-14, 3.504999999999997673, 17.11717277088194678 ) ) ;
#205 = PERSON ( 'UNSPECIFIED', 'UNSPECIFIED', 'UNSPECIFIED', ('UNSPECIFIED'), ('UNSPECIFIED'), ('UNSPECIFIED') ) ;
#206 = APPROVAL ( #121, 'UNSPECIFIED' ) ;
#207 = PERSON_AND_ORGANIZATION ( #205, #29 ) ;
#208 = ADVANCED_FACE ( 'NONE', ( #186 ), #1, .T. ) ;
#209 = EDGE_LOOP ( 'NONE', ( #191 ) ) ;
#210 = SECURITY_CLASSIFICATION ( '', '', #126 ) ;
#211 = EDGE_LOOP ( 'NONE', ( #150 ) ) ;
#212 = CARTESIAN_POINT ( 'NONE',  ( 6.281823795492844412E-14, -1.854318916842698141E-15, 17.99185842870425489 ) ) ;
#213 = AXIS2_PLACEMENT_3D ( 'NONE', #32, #16, #201 ) ;
#214 = COORDINATED_UNIVERSAL_TIME_OFFSET ( 1, 0, .AHEAD. ) ;
#215 = DATE_AND_TIME ( #65, #133 ) ;
#216 = APPROVAL_ROLE ( '' ) ;
#217 = CARTESIAN_POINT ( 'NONE',  ( 5.976428930328812058E-14, -1.764170021551078453E-15, 17.11717277088194678 ) ) ;
#218 = APPROVAL_DATE_TIME ( #9, #23 ) ;
#219 =( GEOMETRIC_REPRESENTATION_CONTEXT ( 3 ) GLOBAL_UNCERTAINTY_ASSIGNED_CONTEXT ( ( #4 ) ) GLOBAL_UNIT_ASSIGNED_CONTEXT ( ( #91, #168, #167 ) ) REPRESENTATION_CONTEXT ( 'NONE', 'WORKASPACE' ) );
#220 = DIRECTION ( 'NONE',  ( -3.491481338843133355E-15, -4.776743573234622319E-16, -1.000000000000000000 ) ) ;
#221 = EDGE_CURVE ( 'NONE', #18, #18, #197, .T. ) ;
#222 = DIRECTION ( 'NONE',  ( -3.491481338843133355E-15, 1.030643345817079849E-16, -1.000000000000000000 ) ) ;
#223 = FACE_OUTER_BOUND ( 'NONE', #135, .T. ) ;
#224 = MANIFOLD_SOLID_BREP ( 'Corps-Déplacer/Copier1[1]', #134 ) ;
#225 = MANIFOLD_SOLID_BREP ( 'Corps-Déplacer/Copier1[2]', #105 ) ;
#226 = CARTESIAN_POINT ( 'NONE',  ( 5.460447964472733444E-30, 7.470513856425077110E-31, 1.563934454904460997E-15 ) ) ;
#227 = CARTESIAN_POINT ( 'NONE',  ( 1.396592535537253342E-15, 3.504999999999997229, 0.3999999999999999667 ) ) ;
#228 = CIRCLE ( 'NONE', #63, 3.504999999999989679 ) ;
#229 = DIRECTION ( 'NONE',  ( -3.491481338843133355E-15, 1.030643345817079849E-16, -1.000000000000000000 ) ) ;
#230 = FACE_BOUND ( 'NONE', #153, .T. ) ;
#231 = DIRECTION ( 'NONE',  ( -1.667791104638755226E-30, 1.000000000000000000, -4.776743573234622319E-16 ) ) ;
#232 = ADVANCED_FACE ( 'NONE', ( #230, #80 ), #79, .T. ) ;
#233 = EDGE_LOOP ( 'NONE', ( #241 ) ) ;
#234 = ORIENTED_EDGE ( 'NONE', *, *, #103, .T. ) ;
#235 = LOCAL_TIME ( 7, 52, 53.00000000000000000, #101 ) ;
#236 = CIRCLE ( 'NONE', #179, 3.504999999999999449 ) ;
#237 = PRODUCT_DEFINITION ( 'UNKNOWN', '', #124, #58 ) ;
#238 = APPROVAL_ROLE ( '' ) ;
#239 = COORDINATED_UNIVERSAL_TIME_OFFSET ( 1, 0, .AHEAD. ) ;
#240 = DIRECTION ( 'NONE',  ( 0.0000000000000000000, 1.000000000000000000, 0.0000000000000000000 ) ) ;
#241 = ORIENTED_EDGE ( 'NONE', *, *, #202, .T. ) ;
#242 = DIRECTION ( 'NONE',  ( 3.491481338843133355E-15, -1.030643345817079849E-16, 1.000000000000000000 ) ) ;
#243 = AXIS2_PLACEMENT_3D ( 'NONE', #143, #220, #231 ) ;
ENDSEC;
END-ISO-10303-21;
