ISO-10303-21;
HEADER;
FILE_DESCRIPTION (( 'STEP AP203' ),
    '1' );
FILE_NAME ('341740.step',
    '2021-11-26T06:52:52',
    ( '' ),
    ( '' ),
    'SwSTEP 2.0',
    'SolidWorks 2019',
    '' );
FILE_SCHEMA (( 'CONFIG_CONTROL_DESIGN' ));
ENDSEC;

DATA;
#1 = DIRECTION ( 'NONE',  ( -3.491481338843133355E-15, 1.030643345817079849E-16, -1.000000000000000000 ) ) ;
#2 = APPLICATION_PROTOCOL_DEFINITION ( 'international standard', 'config_control_design', 1994, #33 ) ;
#3 = APPROVAL ( #211, 'UNSPECIFIED' ) ;
#4 = APPROVAL_ROLE ( '' ) ;
#5 =( NAMED_UNIT ( * ) SI_UNIT ( $, .STERADIAN. ) SOLID_ANGLE_UNIT ( ) );
#6 = VERTEX_POINT ( 'NONE', #21 ) ;
#7 = CALENDAR_DATE ( 2021, 26, 11 ) ;
#8 = LOCAL_TIME ( 7, 52, 52.00000000000000000, #137 ) ;
#9 = DATE_AND_TIME ( #215, #125 ) ;
#10 = EDGE_LOOP ( 'NONE', ( #105 ) ) ;
#11 = DIRECTION ( 'NONE',  ( -1.655090722564582259E-30, 1.000000000000000000, -4.740368233252479899E-16 ) ) ;
#12 = AXIS2_PLACEMENT_3D ( 'NONE', #98, #158, #227 ) ;
#13 = FACE_OUTER_BOUND ( 'NONE', #48, .T. ) ;
#14 = PLANE ( 'NONE',  #189 ) ;
#15 = FACE_OUTER_BOUND ( 'NONE', #86, .T. ) ;
#16 = DIRECTION ( 'NONE',  ( 3.491481338843133355E-15, 4.740368233252479899E-16, 1.000000000000000000 ) ) ;
#17 = VERTEX_POINT ( 'NONE', #229 ) ;
#18 = APPROVAL ( #40, 'UNSPECIFIED' ) ;
#19 = APPLICATION_PROTOCOL_DEFINITION ( 'international standard', 'config_control_design', 1994, #95 ) ;
#20 = PRODUCT_DEFINITION_FORMATION_WITH_SPECIFIED_SOURCE ( 'ANY', '', #185, .NOT_KNOWN. ) ;
#21 = CARTESIAN_POINT ( 'NONE',  ( 3.505447264198505636E-13, 2.999999999999985789, 100.4000000000000057 ) ) ;
#22 = PERSON_AND_ORGANIZATION_ROLE ( 'creator' ) ;
#23 = DIRECTION ( 'NONE',  ( 1.000000000000000000, 0.0000000000000000000, 0.0000000000000000000 ) ) ;
#24 = PRODUCT_DEFINITION ( 'UNKNOWN', '', #20, #180 ) ;
#25 = AXIS2_PLACEMENT_3D ( 'NONE', #34, #184, #91 ) ;
#26 = LOCAL_TIME ( 7, 52, 52.00000000000000000, #134 ) ;
#27 = PERSON_AND_ORGANIZATION ( #237, #217 ) ;
#28 = UNCERTAINTY_MEASURE_WITH_UNIT (LENGTH_MEASURE( 1.000000000000000082E-05 ), #136, 'distance_accuracy_value', 'NONE');
#29 = PERSON_AND_ORGANIZATION ( #237, #217 ) ;
#30 = ORIENTED_EDGE ( 'NONE', *, *, #183, .T. ) ;
#31 = DIRECTION ( 'NONE',  ( 0.0000000000000000000, 1.000000000000000000, 0.0000000000000000000 ) ) ;
#32 = DIRECTION ( 'NONE',  ( 1.655090722564582960E-30, -1.000000000000000000, 4.740368233252479899E-16 ) ) ;
#33 = APPLICATION_CONTEXT ( 'configuration controlled 3d designs of mechanical parts and assemblies' ) ;
#34 = CARTESIAN_POINT ( 'NONE',  ( 6.006666045691587101E-14, 8.155222997751205526E-15, 17.20377531126039017 ) ) ;
#35 = ADVANCED_FACE ( 'NONE', ( #190 ), #149, .T. ) ;
#36 = CARTESIAN_POINT ( 'NONE',  ( 3.505447264198505636E-13, -1.034765919200348261E-14, 100.4000000000000057 ) ) ;
#37 = CARTESIAN_POINT ( 'NONE',  ( 6.006666045691588363E-14, 8.155222997751205526E-15, 17.20377531126039372 ) ) ;
#38 = VERTEX_POINT ( 'NONE', #58 ) ;
#39 = CARTESIAN_POINT ( 'NONE',  ( 6.006666045691587101E-14, 3.454999999999997851, 17.20377531126039017 ) ) ;
#40 = APPROVAL_STATUS ( 'not_yet_approved' ) ;
#41 = CLOSED_SHELL ( 'NONE', ( #208, #228, #196, #107, #157 ) ) ;
#42 = APPROVAL_DATE_TIME ( #178, #18 ) ;
#43 = CONICAL_SURFACE ( 'NONE', #108, 3.224059892324148802, 0.5235987755982979275 ) ;
#44 = APPROVAL_PERSON_ORGANIZATION ( #102, #3, #197 ) ;
#45 = PRODUCT_DEFINITION_SHAPE ( 'NONE', 'NONE',  #24 ) ;
#46 = EDGE_LOOP ( 'NONE', ( #164 ) ) ;
#47 = PERSON_AND_ORGANIZATION_ROLE ( 'creator' ) ;
#48 = EDGE_LOOP ( 'NONE', ( #160 ) ) ;
#49 = ORIENTED_EDGE ( 'NONE', *, *, #171, .F. ) ;
#50 = CARTESIAN_POINT ( 'NONE',  ( 5.336111616778266458E-30, 7.244814318740282465E-31, 1.528323109567680543E-15 ) ) ;
#51 = FACE_OUTER_BOUND ( 'NONE', #234, .T. ) ;
#52 = EDGE_CURVE ( 'NONE', #17, #17, #78, .T. ) ;
#53 = FACE_OUTER_BOUND ( 'NONE', #46, .T. ) ;
#54 = DIRECTION ( 'NONE',  ( -3.491481338843133355E-15, 1.030643345817079849E-16, -1.000000000000000000 ) ) ;
#55 = CARTESIAN_POINT ( 'NONE',  ( 0.0000000000000000000, 0.0000000000000000000, 0.0000000000000000000 ) ) ;
#56 = DIRECTION ( 'NONE',  ( -3.598472008923184252E-31, -1.000000000000000000, -1.030643345817079849E-16 ) ) ;
#57 = CARTESIAN_POINT ( 'NONE',  ( 3.526396152231565067E-13, -1.040949779275250653E-14, 101.0000000000000000 ) ) ;
#58 = CARTESIAN_POINT ( 'NONE',  ( 1.396592535537252948E-15, 3.454999999999998295, 0.3999999999999999112 ) ) ;
#59 = EDGE_CURVE ( 'NONE', #75, #75, #231, .T. ) ;
#60 = EDGE_CURVE ( 'NONE', #79, #79, #226, .T. ) ;
#61 = APPROVAL_PERSON_ORGANIZATION ( #29, #224, #200 ) ;
#62 = DATE_AND_TIME ( #84, #167 ) ;
#63 = MANIFOLD_SOLID_BREP ( 'Corps-Déplacer/Copier1[1]', #41 ) ;
#64 = COORDINATED_UNIVERSAL_TIME_OFFSET ( 1, 0, .AHEAD. ) ;
#65 = PERSON_AND_ORGANIZATION_ROLE ( 'design_supplier' ) ;
#66 = DIRECTION ( 'NONE',  ( -3.491481338843133355E-15, 1.030643345817079849E-16, -1.000000000000000000 ) ) ;
#67 = DIRECTION ( 'NONE',  ( 1.655090722564582610E-30, -1.000000000000000000, 4.740368233252479899E-16 ) ) ;
#68 = AXIS2_PLACEMENT_3D ( 'NONE', #55, #131, #11 ) ;
#69 = CARTESIAN_POINT ( 'NONE',  ( 5.336111616778266458E-30, 7.244814318740282465E-31, 1.528323109567680543E-15 ) ) ;
#70 = CC_DESIGN_APPROVAL ( #3, ( #120 ) ) ;
#71 = EDGE_LOOP ( 'NONE', ( #128 ) ) ;
#72 = CARTESIAN_POINT ( 'NONE',  ( 6.006666045691587101E-14, -1.773095654748268127E-15, 17.20377531126039017 ) ) ;
#73 = CIRCLE ( 'NONE', #152, 3.454999999999998295 ) ;
#74 = DIRECTION ( 'NONE',  ( 3.491481338843133355E-15, -1.030643345817079849E-16, 1.000000000000000000 ) ) ;
#75 = VERTEX_POINT ( 'NONE', #191 ) ;
#76 = COORDINATED_UNIVERSAL_TIME_OFFSET ( 1, 0, .AHEAD. ) ;
#77 = MANIFOLD_SOLID_BREP ( 'Corps-Déplacer/Copier1[2]', #103 ) ;
#78 = CIRCLE ( 'NONE', #25, 3.454999999999989857 ) ;
#79 = VERTEX_POINT ( 'NONE', #155 ) ;
#80 = DATE_TIME_ROLE ( 'creation_date' ) ;
#81 = APPROVAL_DATE_TIME ( #166, #3 ) ;
#82 = APPROVAL_STATUS ( 'not_yet_approved' ) ;
#83 = CC_DESIGN_DATE_AND_TIME_ASSIGNMENT ( #9, #80, ( #24 ) ) ;
#84 = CALENDAR_DATE ( 2021, 26, 11 ) ;
#85 = CC_DESIGN_SECURITY_CLASSIFICATION ( #120, ( #20 ) ) ;
#86 = EDGE_LOOP ( 'NONE', ( #30 ) ) ;
#87 = CC_DESIGN_DATE_AND_TIME_ASSIGNMENT ( #62, #213, ( #120 ) ) ;
#88 = CARTESIAN_POINT ( 'NONE',  ( 6.006666045691587101E-14, -1.773095654748268127E-15, 17.20377531126039017 ) ) ;
#89 = CARTESIAN_POINT ( 'NONE',  ( 6.006666045691588363E-14, 3.454999999999997851, 17.20377531126039372 ) ) ;
#90 = FACE_OUTER_BOUND ( 'NONE', #130, .T. ) ;
#91 = DIRECTION ( 'NONE',  ( 0.0000000000000000000, 1.000000000000000000, 0.0000000000000000000 ) ) ;
#92 = DIRECTION ( 'NONE',  ( 0.0000000000000000000, 0.0000000000000000000, 1.000000000000000000 ) ) ;
#93 = DIRECTION ( 'NONE',  ( -3.491481338843133355E-15, 1.030643345817079849E-16, -1.000000000000000000 ) ) ;
#94 = AXIS2_PLACEMENT_3D ( 'NONE', #170, #218, #109 ) ;
#95 = APPLICATION_CONTEXT ( 'configuration controlled 3d designs of mechanical parts and assemblies' ) ;
#96 = ADVANCED_FACE ( 'NONE', ( #51, #145 ), #110, .T. ) ;
#97 =( NAMED_UNIT ( * ) PLANE_ANGLE_UNIT ( ) SI_UNIT ( $, .RADIAN. ) );
#98 = CARTESIAN_POINT ( 'NONE',  ( 0.0000000000000000000, 0.0000000000000000000, 0.0000000000000000000 ) ) ;
#99 = EDGE_CURVE ( 'NONE', #38, #38, #73, .T. ) ;
#100 = AXIS2_PLACEMENT_3D ( 'NONE', #223, #1, #31 ) ;
#101 = EDGE_LOOP ( 'NONE', ( #144 ) ) ;
#102 = PERSON_AND_ORGANIZATION ( #237, #217 ) ;
#103 = CLOSED_SHELL ( 'NONE', ( #35, #96, #151, #143 ) ) ;
#104 = ORIENTED_EDGE ( 'NONE', *, *, #60, .T. ) ;
#105 = ORIENTED_EDGE ( 'NONE', *, *, #171, .T. ) ;
#106 = CARTESIAN_POINT ( 'NONE',  ( 1.396592535537258667E-15, 1.896147293300999355E-16, 0.4000000000000015210 ) ) ;
#107 = ADVANCED_FACE ( 'NONE', ( #148, #220 ), #242, .T. ) ;
#108 = AXIS2_PLACEMENT_3D ( 'NONE', #50, #126, #32 ) ;
#109 = DIRECTION ( 'NONE',  ( -1.655090722564582610E-30, 1.000000000000000000, -4.740368233252479899E-16 ) ) ;
#110 = CYLINDRICAL_SURFACE ( 'NONE', #68, 3.454999999999994298 ) ;
#111 = DIRECTION ( 'NONE',  ( -3.491481338843133355E-15, 1.030643345817079849E-16, -1.000000000000000000 ) ) ;
#112 = CIRCLE ( 'NONE', #172, 2.999999999999996003 ) ;
#113 = ORIENTED_EDGE ( 'NONE', *, *, #183, .F. ) ;
#114 = EDGE_CURVE ( 'NONE', #153, #153, #175, .T. ) ;
#115 = MECHANICAL_CONTEXT ( 'NONE', #33, 'mechanical' ) ;
#116 = CARTESIAN_POINT ( 'NONE',  ( 3.505447264198505636E-13, -1.034765919200348261E-14, 100.4000000000000057 ) ) ;
#117 = PRODUCT_RELATED_PRODUCT_CATEGORY ( 'detail', '', ( #185 ) ) ;
#118 = FACE_OUTER_BOUND ( 'NONE', #101, .T. ) ;
#119 = AXIS2_PLACEMENT_3D ( 'NONE', #72, #222, #150 ) ;
#120 = SECURITY_CLASSIFICATION ( '', '', #165 ) ;
#121 = VERTEX_POINT ( 'NONE', #193 ) ;
#122 = AXIS2_PLACEMENT_3D ( 'NONE', #69, #129, #205 ) ;
#123 = APPROVAL_PERSON_ORGANIZATION ( #177, #18, #4 ) ;
#124 = ORIENTED_EDGE ( 'NONE', *, *, #52, .T. ) ;
#125 = LOCAL_TIME ( 7, 52, 52.00000000000000000, #76 ) ;
#126 = DIRECTION ( 'NONE',  ( 3.491481338843133355E-15, 4.740368233252479899E-16, 1.000000000000000000 ) ) ;
#127 =( GEOMETRIC_REPRESENTATION_CONTEXT ( 3 ) GLOBAL_UNCERTAINTY_ASSIGNED_CONTEXT ( ( #28 ) ) GLOBAL_UNIT_ASSIGNED_CONTEXT ( ( #136, #97, #5 ) ) REPRESENTATION_CONTEXT ( 'NONE', 'WORKASPACE' ) );
#128 = ORIENTED_EDGE ( 'NONE', *, *, #114, .F. ) ;
#129 = DIRECTION ( 'NONE',  ( -3.491481338843133355E-15, -4.740368233252479899E-16, -1.000000000000000000 ) ) ;
#130 = EDGE_LOOP ( 'NONE', ( #198 ) ) ;
#131 = DIRECTION ( 'NONE',  ( -3.491481338843133355E-15, -4.740368233252479899E-16, -1.000000000000000000 ) ) ;
#132 = PERSON_AND_ORGANIZATION ( #237, #217 ) ;
#133 = CC_DESIGN_PERSON_AND_ORGANIZATION_ASSIGNMENT ( #138, #65, ( #20 ) ) ;
#134 = COORDINATED_UNIVERSAL_TIME_OFFSET ( 1, 0, .AHEAD. ) ;
#135 = AXIS2_PLACEMENT_3D ( 'NONE', #88, #66, #240 ) ;
#136 =( LENGTH_UNIT ( ) NAMED_UNIT ( * ) SI_UNIT ( .MILLI., .METRE. ) );
#137 = COORDINATED_UNIVERSAL_TIME_OFFSET ( 1, 0, .AHEAD. ) ;
#138 = PERSON_AND_ORGANIZATION ( #237, #217 ) ;
#139 = EDGE_LOOP ( 'NONE', ( #236 ) ) ;
#140 = COORDINATED_UNIVERSAL_TIME_OFFSET ( 1, 0, .AHEAD. ) ;
#141 = EDGE_LOOP ( 'NONE', ( #104 ) ) ;
#142 = AXIS2_PLACEMENT_3D ( 'NONE', #57, #74, #56 ) ;
#143 = ADVANCED_FACE ( 'NONE', ( #186 ), #225, .T. ) ;
#144 = ORIENTED_EDGE ( 'NONE', *, *, #60, .F. ) ;
#145 = FACE_OUTER_BOUND ( 'NONE', #139, .T. ) ;
#146 = DIRECTION ( 'NONE',  ( -3.491481338843133355E-15, 1.030643345817079849E-16, -1.000000000000000000 ) ) ;
#147 = LOCAL_TIME ( 7, 52, 52.00000000000000000, #64 ) ;
#148 = FACE_BOUND ( 'NONE', #243, .T. ) ;
#149 = PLANE ( 'NONE',  #202 ) ;
#150 = DIRECTION ( 'NONE',  ( 0.0000000000000000000, 1.000000000000000000, 0.0000000000000000000 ) ) ;
#151 = ADVANCED_FACE ( 'NONE', ( #53, #204 ), #43, .T. ) ;
#152 = AXIS2_PLACEMENT_3D ( 'NONE', #106, #239, #169 ) ;
#153 = VERTEX_POINT ( 'NONE', #39 ) ;
#154 = FACE_BOUND ( 'NONE', #141, .T. ) ;
#155 = CARTESIAN_POINT ( 'NONE',  ( 3.526396152231565067E-13, 2.399999999999985700, 101.0000000000000000 ) ) ;
#156 = FACE_OUTER_BOUND ( 'NONE', #174, .T. ) ;
#157 = ADVANCED_FACE ( 'NONE', ( #13 ), #14, .T. ) ;
#158 = DIRECTION ( 'NONE',  ( -3.491481338843133355E-15, 1.030643345817079849E-16, -1.000000000000000000 ) ) ;
#159 = SHAPE_DEFINITION_REPRESENTATION ( #45, #210 ) ;
#160 = ORIENTED_EDGE ( 'NONE', *, *, #114, .T. ) ;
#161 = PERSON_AND_ORGANIZATION ( #237, #217 ) ;
#162 = CC_DESIGN_PERSON_AND_ORGANIZATION_ASSIGNMENT ( #161, #47, ( #20 ) ) ;
#163 = CONICAL_SURFACE ( 'NONE', #212, 2.999999999999996003, 0.7853981633974453924 ) ;
#164 = ORIENTED_EDGE ( 'NONE', *, *, #99, .T. ) ;
#165 = SECURITY_CLASSIFICATION_LEVEL ( 'unclassified' ) ;
#166 = DATE_AND_TIME ( #7, #147 ) ;
#167 = LOCAL_TIME ( 7, 52, 52.00000000000000000, #140 ) ;
#168 = CARTESIAN_POINT ( 'NONE',  ( 3.526396152231565067E-13, -1.040949779275250653E-14, 101.0000000000000000 ) ) ;
#169 = DIRECTION ( 'NONE',  ( -1.672298070379655694E-30, 1.000000000000000000, -4.707100604133885549E-16 ) ) ;
#170 = CARTESIAN_POINT ( 'NONE',  ( -2.668055808389133229E-30, 3.224059892324148802, -7.641615547838402717E-16 ) ) ;
#171 = EDGE_CURVE ( 'NONE', #121, #121, #216, .T. ) ;
#172 = AXIS2_PLACEMENT_3D ( 'NONE', #36, #111, #188 ) ;
#173 = CYLINDRICAL_SURFACE ( 'NONE', #12, 2.999999999999993339 ) ;
#174 = EDGE_LOOP ( 'NONE', ( #113 ) ) ;
#175 = CIRCLE ( 'NONE', #135, 3.454999999999999627 ) ;
#176 = AXIS2_PLACEMENT_3D ( 'NONE', #207, #92, #23 ) ;
#177 = PERSON_AND_ORGANIZATION ( #237, #217 ) ;
#178 = DATE_AND_TIME ( #209, #26 ) ;
#179 = DIRECTION ( 'NONE',  ( 0.0000000000000000000, 1.000000000000000000, 0.0000000000000000000 ) ) ;
#180 = DESIGN_CONTEXT ( 'detailed design', #95, 'design' ) ;
#181 = APPROVAL_DATE_TIME ( #235, #224 ) ;
#182 = EDGE_LOOP ( 'NONE', ( #201 ) ) ;
#183 = EDGE_CURVE ( 'NONE', #6, #6, #112, .T. ) ;
#184 = DIRECTION ( 'NONE',  ( -3.491481338843133355E-15, -4.740368233252479899E-16, -1.000000000000000000 ) ) ;
#185 = PRODUCT ( '341740', '341740', '', ( #115 ) ) ;
#186 = FACE_OUTER_BOUND ( 'NONE', #10, .T. ) ;
#187 = DIRECTION ( 'NONE',  ( 0.0000000000000000000, 1.000000000000000000, 0.0000000000000000000 ) ) ;
#188 = DIRECTION ( 'NONE',  ( 0.0000000000000000000, 1.000000000000000000, 0.0000000000000000000 ) ) ;
#189 = AXIS2_PLACEMENT_3D ( 'NONE', #89, #54, #241 ) ;
#190 = FACE_OUTER_BOUND ( 'NONE', #182, .T. ) ;
#191 = CARTESIAN_POINT ( 'NONE',  ( 6.281823795492844412E-14, 2.999999999999988010, 17.99185842870425489 ) ) ;
#192 = PERSON_AND_ORGANIZATION_ROLE ( 'design_owner' ) ;
#193 = CARTESIAN_POINT ( 'NONE',  ( 6.842277657836020854E-46, 3.224059892324148802, 0.0000000000000000000 ) ) ;
#194 = PERSON_AND_ORGANIZATION ( #237, #217 ) ;
#195 = CC_DESIGN_APPROVAL ( #224, ( #20 ) ) ;
#196 = ADVANCED_FACE ( 'NONE', ( #15, #90 ), #173, .T. ) ;
#197 = APPROVAL_ROLE ( '' ) ;
#198 = ORIENTED_EDGE ( 'NONE', *, *, #59, .F. ) ;
#199 = EDGE_LOOP ( 'NONE', ( #49 ) ) ;
#200 = APPROVAL_ROLE ( '' ) ;
#201 = ORIENTED_EDGE ( 'NONE', *, *, #52, .F. ) ;
#202 = AXIS2_PLACEMENT_3D ( 'NONE', #37, #16, #67 ) ;
#203 = CC_DESIGN_PERSON_AND_ORGANIZATION_ASSIGNMENT ( #27, #232, ( #120 ) ) ;
#204 = FACE_BOUND ( 'NONE', #199, .T. ) ;
#205 = DIRECTION ( 'NONE',  ( -1.655090722564582610E-30, 1.000000000000000000, -4.740368233252479899E-16 ) ) ;
#206 = ORIENTED_EDGE ( 'NONE', *, *, #59, .T. ) ;
#207 = CARTESIAN_POINT ( 'NONE',  ( 0.0000000000000000000, 0.0000000000000000000, 0.0000000000000000000 ) ) ;
#208 = ADVANCED_FACE ( 'NONE', ( #118 ), #230, .T. ) ;
#209 = CALENDAR_DATE ( 2021, 26, 11 ) ;
#210 = ADVANCED_BREP_SHAPE_REPRESENTATION ( '341740', ( #63, #77, #176 ), #127 ) ;
#211 = APPROVAL_STATUS ( 'not_yet_approved' ) ;
#212 = AXIS2_PLACEMENT_3D ( 'NONE', #116, #93, #179 ) ;
#213 = DATE_TIME_ROLE ( 'classification_date' ) ;
#214 = CC_DESIGN_PERSON_AND_ORGANIZATION_ASSIGNMENT ( #132, #192, ( #185 ) ) ;
#215 = CALENDAR_DATE ( 2021, 26, 11 ) ;
#216 = CIRCLE ( 'NONE', #122, 3.224059892324148802 ) ;
#217 = ORGANIZATION ( 'UNSPECIFIED', 'UNSPECIFIED', '' ) ;
#218 = DIRECTION ( 'NONE',  ( -3.491481338843133355E-15, -4.740368233252479899E-16, -1.000000000000000000 ) ) ;
#219 = CC_DESIGN_PERSON_AND_ORGANIZATION_ASSIGNMENT ( #194, #22, ( #24 ) ) ;
#220 = FACE_OUTER_BOUND ( 'NONE', #71, .T. ) ;
#221 = AXIS2_PLACEMENT_3D ( 'NONE', #168, #146, #187 ) ;
#222 = DIRECTION ( 'NONE',  ( -3.491481338843133355E-15, 1.030643345817079849E-16, -1.000000000000000000 ) ) ;
#223 = CARTESIAN_POINT ( 'NONE',  ( 6.281823795492844412E-14, -1.854318916842698141E-15, 17.99185842870425489 ) ) ;
#224 = APPROVAL ( #82, 'UNSPECIFIED' ) ;
#225 = PLANE ( 'NONE',  #94 ) ;
#226 = CIRCLE ( 'NONE', #221, 2.399999999999996358 ) ;
#227 = DIRECTION ( 'NONE',  ( 3.598472008923184252E-31, 1.000000000000000000, 1.030643345817079726E-16 ) ) ;
#228 = ADVANCED_FACE ( 'NONE', ( #154, #156 ), #163, .T. ) ;
#229 = CARTESIAN_POINT ( 'NONE',  ( 6.006666045691587101E-14, 3.454999999999997851, 17.20377531126039017 ) ) ;
#230 = PLANE ( 'NONE',  #142 ) ;
#231 = CIRCLE ( 'NONE', #100, 2.999999999999989786 ) ;
#232 = PERSON_AND_ORGANIZATION_ROLE ( 'classification_officer' ) ;
#233 = CC_DESIGN_APPROVAL ( #18, ( #24 ) ) ;
#234 = EDGE_LOOP ( 'NONE', ( #124 ) ) ;
#235 = DATE_AND_TIME ( #238, #8 ) ;
#236 = ORIENTED_EDGE ( 'NONE', *, *, #99, .F. ) ;
#237 = PERSON ( 'UNSPECIFIED', 'UNSPECIFIED', 'UNSPECIFIED', ('UNSPECIFIED'), ('UNSPECIFIED'), ('UNSPECIFIED') ) ;
#238 = CALENDAR_DATE ( 2021, 26, 11 ) ;
#239 = DIRECTION ( 'NONE',  ( -3.491481338843133355E-15, -4.740368233252479899E-16, -1.000000000000000000 ) ) ;
#240 = DIRECTION ( 'NONE',  ( 0.0000000000000000000, 1.000000000000000000, 0.0000000000000000000 ) ) ;
#241 = DIRECTION ( 'NONE',  ( 3.598472008923184252E-31, 1.000000000000000000, 1.030643345817079849E-16 ) ) ;
#242 = CONICAL_SURFACE ( 'NONE', #119, 3.454999999999999627, 0.5235987755982939307 ) ;
#243 = EDGE_LOOP ( 'NONE', ( #206 ) ) ;
ENDSEC;
END-ISO-10303-21;
