ISO-10303-21;
HEADER;
FILE_DESCRIPTION (( 'STEP AP203' ),
    '1' );
FILE_NAME ('341730.step',
    '2021-11-26T06:52:52',
    ( '' ),
    ( '' ),
    'SwSTEP 2.0',
    'SolidWorks 2019',
    '' );
FILE_SCHEMA (( 'CONFIG_CONTROL_DESIGN' ));
ENDSEC;

DATA;
#1 = COORDINATED_UNIVERSAL_TIME_OFFSET ( 1, 0, .AHEAD. ) ;
#2 = CC_DESIGN_PERSON_AND_ORGANIZATION_ASSIGNMENT ( #216, #149, ( #75 ) ) ;
#3 = DIRECTION ( 'NONE',  ( -3.491481338843133355E-15, 1.030643345817079849E-16, -1.000000000000000000 ) ) ;
#4 = AXIS2_PLACEMENT_3D ( 'NONE', #62, #3, #60 ) ;
#5 = CC_DESIGN_APPROVAL ( #168, ( #14 ) ) ;
#6 = CARTESIAN_POINT ( 'NONE',  ( -6.842277657836020854E-46, 3.174059892324147203, 0.0000000000000000000 ) ) ;
#7 = CARTESIAN_POINT ( 'NONE',  ( 3.505447264198505636E-13, -1.034765919200348261E-14, 100.4000000000000057 ) ) ;
#8 = CARTESIAN_POINT ( 'NONE',  ( 6.036903161054363406E-14, 3.404999999999997584, 17.29037785163883711 ) ) ;
#9 = PERSON_AND_ORGANIZATION_ROLE ( 'creator' ) ;
#10 = ORIENTED_EDGE ( 'NONE', *, *, #59, .T. ) ;
#11 = CC_DESIGN_DATE_AND_TIME_ASSIGNMENT ( #172, #35, ( #21 ) ) ;
#12 = SECURITY_CLASSIFICATION_LEVEL ( 'unclassified' ) ;
#13 = CALENDAR_DATE ( 2021, 26, 11 ) ;
#14 = PRODUCT_DEFINITION_FORMATION_WITH_SPECIFIED_SOURCE ( 'ANY', '', #75, .NOT_KNOWN. ) ;
#15 = ADVANCED_FACE ( 'NONE', ( #199 ), #84, .T. ) ;
#16 = CALENDAR_DATE ( 2021, 26, 11 ) ;
#17 = APPROVAL ( #91, 'UNSPECIFIED' ) ;
#18 = CARTESIAN_POINT ( 'NONE',  ( 6.036903161054362144E-14, 3.404999999999997584, 17.29037785163883356 ) ) ;
#19 = AXIS2_PLACEMENT_3D ( 'NONE', #7, #233, #80 ) ;
#20 = DIRECTION ( 'NONE',  ( 0.0000000000000000000, 1.000000000000000000, 0.0000000000000000000 ) ) ;
#21 = PRODUCT_DEFINITION ( 'UNKNOWN', '', #14, #23 ) ;
#22 = FACE_OUTER_BOUND ( 'NONE', #181, .T. ) ;
#23 = DESIGN_CONTEXT ( 'detailed design', #197, 'design' ) ;
#24 = DIRECTION ( 'NONE',  ( -3.491481338843133355E-15, -4.704357280547076500E-16, -1.000000000000000000 ) ) ;
#25 = CC_DESIGN_PERSON_AND_ORGANIZATION_ASSIGNMENT ( #56, #225, ( #143 ) ) ;
#26 = DIRECTION ( 'NONE',  ( -3.491481338843133355E-15, -4.704357280547076500E-16, -1.000000000000000000 ) ) ;
#27 = APPLICATION_PROTOCOL_DEFINITION ( 'international standard', 'config_control_design', 1994, #197 ) ;
#28 = ORIENTED_EDGE ( 'NONE', *, *, #59, .F. ) ;
#29 = FACE_OUTER_BOUND ( 'NONE', #70, .T. ) ;
#30 = PERSON_AND_ORGANIZATION ( #183, #238 ) ;
#31 = FACE_OUTER_BOUND ( 'NONE', #125, .T. ) ;
#32 = VERTEX_POINT ( 'NONE', #174 ) ;
#33 = PERSON_AND_ORGANIZATION ( #183, #238 ) ;
#34 = DIRECTION ( 'NONE',  ( -3.491481338843133355E-15, 1.030643345817079849E-16, -1.000000000000000000 ) ) ;
#35 = DATE_TIME_ROLE ( 'creation_date' ) ;
#36 = DATE_AND_TIME ( #67, #218 ) ;
#37 = AXIS2_PLACEMENT_3D ( 'NONE', #74, #106, #123 ) ;
#38 = AXIS2_PLACEMENT_3D ( 'NONE', #214, #45, #69 ) ;
#39 = DIRECTION ( 'NONE',  ( -3.491481338843133355E-15, -4.704357280547076500E-16, -1.000000000000000000 ) ) ;
#40 = FACE_OUTER_BOUND ( 'NONE', #237, .T. ) ;
#41 = CARTESIAN_POINT ( 'NONE',  ( 3.505447264198505636E-13, 2.999999999999985789, 100.4000000000000057 ) ) ;
#42 = CARTESIAN_POINT ( 'NONE',  ( 6.036903161054362144E-14, -1.782021287945458195E-15, 17.29037785163883356 ) ) ;
#43 = SHAPE_DEFINITION_REPRESENTATION ( #226, #139 ) ;
#44 = AXIS2_PLACEMENT_3D ( 'NONE', #95, #158, #194 ) ;
#45 = DIRECTION ( 'NONE',  ( 3.491481338843133355E-15, 4.704357280547076500E-16, 1.000000000000000000 ) ) ;
#46 = ADVANCED_FACE ( 'NONE', ( #29 ), #178, .T. ) ;
#47 = EDGE_LOOP ( 'NONE', ( #28 ) ) ;
#48 = CALENDAR_DATE ( 2021, 26, 11 ) ;
#49 = EDGE_LOOP ( 'NONE', ( #198 ) ) ;
#50 = ADVANCED_FACE ( 'NONE', ( #142 ), #122, .T. ) ;
#51 = AXIS2_PLACEMENT_3D ( 'NONE', #196, #26, #98 ) ;
#52 = EDGE_LOOP ( 'NONE', ( #101 ) ) ;
#53 = PERSON_AND_ORGANIZATION ( #183, #238 ) ;
#54 = APPROVAL_DATE_TIME ( #208, #201 ) ;
#55 = EDGE_CURVE ( 'NONE', #232, #232, #108, .T. ) ;
#56 = PERSON_AND_ORGANIZATION ( #183, #238 ) ;
#57 = CC_DESIGN_SECURITY_CLASSIFICATION ( #143, ( #14 ) ) ;
#58 = CIRCLE ( 'NONE', #4, 3.404999999999999361 ) ;
#59 = EDGE_CURVE ( 'NONE', #114, #114, #188, .T. ) ;
#60 = DIRECTION ( 'NONE',  ( 0.0000000000000000000, 1.000000000000000000, 0.0000000000000000000 ) ) ;
#61 = LOCAL_TIME ( 7, 52, 52.00000000000000000, #1 ) ;
#62 = CARTESIAN_POINT ( 'NONE',  ( 6.036903161054362144E-14, -1.782021287945458195E-15, 17.29037785163883356 ) ) ;
#63 = DIRECTION ( 'NONE',  ( 1.642517565628095263E-30, -1.000000000000000000, 4.704357280547076500E-16 ) ) ;
#64 = CYLINDRICAL_SURFACE ( 'NONE', #184, 3.404999999999993143 ) ;
#65 = CARTESIAN_POINT ( 'NONE',  ( 1.396592535537258667E-15, 1.881742912218837897E-16, 0.4000000000000015210 ) ) ;
#66 = AXIS2_PLACEMENT_3D ( 'NONE', #77, #231, #63 ) ;
#67 = CALENDAR_DATE ( 2021, 26, 11 ) ;
#68 =( NAMED_UNIT ( * ) SI_UNIT ( $, .STERADIAN. ) SOLID_ANGLE_UNIT ( ) );
#69 = DIRECTION ( 'NONE',  ( 1.642517565628094913E-30, -1.000000000000000000, 4.704357280547076500E-16 ) ) ;
#70 = EDGE_LOOP ( 'NONE', ( #100 ) ) ;
#71 = CIRCLE ( 'NONE', #44, 2.399999999999996358 ) ;
#72 = FACE_OUTER_BOUND ( 'NONE', #86, .T. ) ;
#73 = ORIENTED_EDGE ( 'NONE', *, *, #110, .F. ) ;
#74 = CARTESIAN_POINT ( 'NONE',  ( 0.0000000000000000000, 0.0000000000000000000, 0.0000000000000000000 ) ) ;
#75 = PRODUCT ( '341730', '341730', '', ( #87 ) ) ;
#76 = CC_DESIGN_PERSON_AND_ORGANIZATION_ASSIGNMENT ( #129, #9, ( #21 ) ) ;
#77 = CARTESIAN_POINT ( 'NONE',  ( 5.213449127498030716E-30, 7.024504781639068112E-31, 1.493191176334757086E-15 ) ) ;
#78 = FACE_BOUND ( 'NONE', #47, .T. ) ;
#79 = AXIS2_PLACEMENT_3D ( 'NONE', #227, #229, #94 ) ;
#80 = DIRECTION ( 'NONE',  ( 0.0000000000000000000, 1.000000000000000000, 0.0000000000000000000 ) ) ;
#81 = AXIS2_PLACEMENT_3D ( 'NONE', #65, #213, #145 ) ;
#82 = EDGE_LOOP ( 'NONE', ( #217 ) ) ;
#83 = EDGE_CURVE ( 'NONE', #121, #121, #240, .T. ) ;
#84 = PLANE ( 'NONE',  #38 ) ;
#85 = APPLICATION_CONTEXT ( 'configuration controlled 3d designs of mechanical parts and assemblies' ) ;
#86 = EDGE_LOOP ( 'NONE', ( #73 ) ) ;
#87 = MECHANICAL_CONTEXT ( 'NONE', #85, 'mechanical' ) ;
#88 = CARTESIAN_POINT ( 'NONE',  ( 1.396592535537253145E-15, 3.404999999999997140, 0.3999999999999999112 ) ) ;
#89 = COORDINATED_UNIVERSAL_TIME_OFFSET ( 1, 0, .AHEAD. ) ;
#90 = APPROVAL_PERSON_ORGANIZATION ( #99, #201, #169 ) ;
#91 = APPROVAL_STATUS ( 'not_yet_approved' ) ;
#92 = DATE_AND_TIME ( #16, #165 ) ;
#93 = CLOSED_SHELL ( 'NONE', ( #15, #124, #204, #50 ) ) ;
#94 = DIRECTION ( 'NONE',  ( 0.0000000000000000000, 1.000000000000000000, 0.0000000000000000000 ) ) ;
#95 = CARTESIAN_POINT ( 'NONE',  ( 3.526396152231565067E-13, -1.040949779275250653E-14, 101.0000000000000000 ) ) ;
#96 = CARTESIAN_POINT ( 'NONE',  ( 0.0000000000000000000, 0.0000000000000000000, 0.0000000000000000000 ) ) ;
#97 = CARTESIAN_POINT ( 'NONE',  ( 6.281823795492844412E-14, 2.999999999999988010, 17.99185842870425489 ) ) ;
#98 = DIRECTION ( 'NONE',  ( -1.642517565628094913E-30, 1.000000000000000000, -4.704357280547076500E-16 ) ) ;
#99 = PERSON_AND_ORGANIZATION ( #183, #238 ) ;
#100 = ORIENTED_EDGE ( 'NONE', *, *, #104, .T. ) ;
#101 = ORIENTED_EDGE ( 'NONE', *, *, #110, .T. ) ;
#102 = EDGE_LOOP ( 'NONE', ( #160 ) ) ;
#103 = CC_DESIGN_DATE_AND_TIME_ASSIGNMENT ( #131, #170, ( #143 ) ) ;
#104 = EDGE_CURVE ( 'NONE', #157, #157, #58, .T. ) ;
#105 = ORIENTED_EDGE ( 'NONE', *, *, #161, .T. ) ;
#106 = DIRECTION ( 'NONE',  ( 0.0000000000000000000, 0.0000000000000000000, 1.000000000000000000 ) ) ;
#107 = PLANE ( 'NONE',  #210 ) ;
#108 = CIRCLE ( 'NONE', #127, 3.404999999999989146 ) ;
#109 = PERSON_AND_ORGANIZATION_ROLE ( 'design_supplier' ) ;
#110 = EDGE_CURVE ( 'NONE', #228, #228, #144, .T. ) ;
#111 = PERSON_AND_ORGANIZATION_ROLE ( 'creator' ) ;
#112 = AXIS2_PLACEMENT_3D ( 'NONE', #207, #34, #185 ) ;
#113 = COORDINATED_UNIVERSAL_TIME_OFFSET ( 1, 0, .AHEAD. ) ;
#114 = VERTEX_POINT ( 'NONE', #6 ) ;
#115 = CARTESIAN_POINT ( 'NONE',  ( 6.036903161054362144E-14, 8.134011492976707797E-15, 17.29037785163883356 ) ) ;
#116 = FACE_BOUND ( 'NONE', #52, .T. ) ;
#117 = EDGE_CURVE ( 'NONE', #32, #32, #71, .T. ) ;
#118 = CARTESIAN_POINT ( 'NONE',  ( 6.036903161054362144E-14, 3.404999999999997584, 17.29037785163883356 ) ) ;
#119 = DIRECTION ( 'NONE',  ( -3.491481338843133355E-15, 1.030643345817079849E-16, -1.000000000000000000 ) ) ;
#120 = MANIFOLD_SOLID_BREP ( 'Corps-Déplacer/Copier1[1]', #220 ) ;
#121 = VERTEX_POINT ( 'NONE', #41 ) ;
#122 = PLANE ( 'NONE',  #51 ) ;
#123 = DIRECTION ( 'NONE',  ( 1.000000000000000000, 0.0000000000000000000, 0.0000000000000000000 ) ) ;
#124 = ADVANCED_FACE ( 'NONE', ( #176, #22 ), #64, .T. ) ;
#125 = EDGE_LOOP ( 'NONE', ( #151 ) ) ;
#126 = EDGE_LOOP ( 'NONE', ( #166 ) ) ;
#127 = AXIS2_PLACEMENT_3D ( 'NONE', #115, #39, #153 ) ;
#128 = EDGE_LOOP ( 'NONE', ( #10 ) ) ;
#129 = PERSON_AND_ORGANIZATION ( #183, #238 ) ;
#130 = DIRECTION ( 'NONE',  ( 3.491481338843133355E-15, -1.030643345817079849E-16, 1.000000000000000000 ) ) ;
#131 = DATE_AND_TIME ( #13, #134 ) ;
#132 = APPROVAL_ROLE ( '' ) ;
#133 = CIRCLE ( 'NONE', #81, 3.404999999999997140 ) ;
#134 = LOCAL_TIME ( 7, 52, 52.00000000000000000, #89 ) ;
#135 = EDGE_LOOP ( 'NONE', ( #163 ) ) ;
#136 = FACE_OUTER_BOUND ( 'NONE', #182, .T. ) ;
#137 = FACE_BOUND ( 'NONE', #126, .T. ) ;
#138 = UNCERTAINTY_MEASURE_WITH_UNIT (LENGTH_MEASURE( 1.000000000000000082E-05 ), #141, 'distance_accuracy_value', 'NONE');
#139 = ADVANCED_BREP_SHAPE_REPRESENTATION ( '341730', ( #120, #200, #37 ), #203 ) ;
#140 =( NAMED_UNIT ( * ) PLANE_ANGLE_UNIT ( ) SI_UNIT ( $, .RADIAN. ) );
#141 =( LENGTH_UNIT ( ) NAMED_UNIT ( * ) SI_UNIT ( .MILLI., .METRE. ) );
#142 = FACE_OUTER_BOUND ( 'NONE', #128, .T. ) ;
#143 = SECURITY_CLASSIFICATION ( '', '', #12 ) ;
#144 = CIRCLE ( 'NONE', #177, 2.999999999999989786 ) ;
#145 = DIRECTION ( 'NONE',  ( -1.640292757334210928E-30, 1.000000000000000000, -4.776221024165222210E-16 ) ) ;
#146 = APPROVAL_ROLE ( '' ) ;
#147 = CONICAL_SURFACE ( 'NONE', #66, 3.174059892324147203, 0.5235987755982979275 ) ;
#148 = CYLINDRICAL_SURFACE ( 'NONE', #112, 2.999999999999993339 ) ;
#149 = PERSON_AND_ORGANIZATION_ROLE ( 'design_owner' ) ;
#150 = CC_DESIGN_PERSON_AND_ORGANIZATION_ASSIGNMENT ( #33, #111, ( #14 ) ) ;
#151 = ORIENTED_EDGE ( 'NONE', *, *, #83, .T. ) ;
#152 = AXIS2_PLACEMENT_3D ( 'NONE', #8, #236, #164 ) ;
#153 = DIRECTION ( 'NONE',  ( 0.0000000000000000000, 1.000000000000000000, 0.0000000000000000000 ) ) ;
#154 = ADVANCED_FACE ( 'NONE', ( #137, #156 ), #215, .T. ) ;
#155 = CARTESIAN_POINT ( 'NONE',  ( 5.213449127498030716E-30, 7.024504781639068112E-31, 1.493191176334757086E-15 ) ) ;
#156 = FACE_OUTER_BOUND ( 'NONE', #49, .T. ) ;
#157 = VERTEX_POINT ( 'NONE', #118 ) ;
#158 = DIRECTION ( 'NONE',  ( -3.491481338843133355E-15, 1.030643345817079849E-16, -1.000000000000000000 ) ) ;
#159 = AXIS2_PLACEMENT_3D ( 'NONE', #42, #119, #192 ) ;
#160 = ORIENTED_EDGE ( 'NONE', *, *, #117, .F. ) ;
#161 = EDGE_CURVE ( 'NONE', #191, #191, #133, .T. ) ;
#162 = APPROVAL_STATUS ( 'not_yet_approved' ) ;
#163 = ORIENTED_EDGE ( 'NONE', *, *, #55, .T. ) ;
#164 = DIRECTION ( 'NONE',  ( 3.598472008923184252E-31, 1.000000000000000000, 1.030643345817079849E-16 ) ) ;
#165 = LOCAL_TIME ( 7, 52, 52.00000000000000000, #113 ) ;
#166 = ORIENTED_EDGE ( 'NONE', *, *, #117, .T. ) ;
#167 = AXIS2_PLACEMENT_3D ( 'NONE', #155, #189, #212 ) ;
#168 = APPROVAL ( #223, 'UNSPECIFIED' ) ;
#169 = APPROVAL_ROLE ( '' ) ;
#170 = DATE_TIME_ROLE ( 'classification_date' ) ;
#171 = APPROVAL_PERSON_ORGANIZATION ( #243, #17, #132 ) ;
#172 = DATE_AND_TIME ( #48, #61 ) ;
#173 = CC_DESIGN_APPROVAL ( #17, ( #143 ) ) ;
#174 = CARTESIAN_POINT ( 'NONE',  ( 3.526396152231565067E-13, 2.399999999999985700, 101.0000000000000000 ) ) ;
#175 = APPROVAL_PERSON_ORGANIZATION ( #30, #168, #146 ) ;
#176 = FACE_OUTER_BOUND ( 'NONE', #135, .T. ) ;
#177 = AXIS2_PLACEMENT_3D ( 'NONE', #211, #190, #20 ) ;
#178 = PLANE ( 'NONE',  #152 ) ;
#179 = CALENDAR_DATE ( 2021, 26, 11 ) ;
#180 = ORIENTED_EDGE ( 'NONE', *, *, #161, .F. ) ;
#181 = EDGE_LOOP ( 'NONE', ( #180 ) ) ;
#182 = EDGE_LOOP ( 'NONE', ( #202 ) ) ;
#183 = PERSON ( 'UNSPECIFIED', 'UNSPECIFIED', 'UNSPECIFIED', ('UNSPECIFIED'), ('UNSPECIFIED'), ('UNSPECIFIED') ) ;
#184 = AXIS2_PLACEMENT_3D ( 'NONE', #96, #24, #234 ) ;
#185 = DIRECTION ( 'NONE',  ( 3.598472008923184252E-31, 1.000000000000000000, 1.030643345817079726E-16 ) ) ;
#186 = APPROVAL_DATE_TIME ( #36, #168 ) ;
#187 = APPLICATION_PROTOCOL_DEFINITION ( 'international standard', 'config_control_design', 1994, #85 ) ;
#188 = CIRCLE ( 'NONE', #167, 3.174059892324147203 ) ;
#189 = DIRECTION ( 'NONE',  ( -3.491481338843133355E-15, -4.704357280547076500E-16, -1.000000000000000000 ) ) ;
#190 = DIRECTION ( 'NONE',  ( -3.491481338843133355E-15, 1.030643345817079849E-16, -1.000000000000000000 ) ) ;
#191 = VERTEX_POINT ( 'NONE', #88 ) ;
#192 = DIRECTION ( 'NONE',  ( 0.0000000000000000000, 1.000000000000000000, 0.0000000000000000000 ) ) ;
#193 = ADVANCED_FACE ( 'NONE', ( #221 ), #107, .T. ) ;
#194 = DIRECTION ( 'NONE',  ( 0.0000000000000000000, 1.000000000000000000, 0.0000000000000000000 ) ) ;
#195 = ADVANCED_FACE ( 'NONE', ( #31, #72 ), #148, .T. ) ;
#196 = CARTESIAN_POINT ( 'NONE',  ( -2.606724563749015358E-30, 3.174059892324147203, -7.465955881673785432E-16 ) ) ;
#197 = APPLICATION_CONTEXT ( 'configuration controlled 3d designs of mechanical parts and assemblies' ) ;
#198 = ORIENTED_EDGE ( 'NONE', *, *, #83, .F. ) ;
#199 = FACE_OUTER_BOUND ( 'NONE', #82, .T. ) ;
#200 = MANIFOLD_SOLID_BREP ( 'Corps-Déplacer/Copier1[2]', #93 ) ;
#201 = APPROVAL ( #162, 'UNSPECIFIED' ) ;
#202 = ORIENTED_EDGE ( 'NONE', *, *, #104, .F. ) ;
#203 =( GEOMETRIC_REPRESENTATION_CONTEXT ( 3 ) GLOBAL_UNCERTAINTY_ASSIGNED_CONTEXT ( ( #138 ) ) GLOBAL_UNIT_ASSIGNED_CONTEXT ( ( #141, #140, #68 ) ) REPRESENTATION_CONTEXT ( 'NONE', 'WORKASPACE' ) );
#204 = ADVANCED_FACE ( 'NONE', ( #40, #78 ), #147, .T. ) ;
#205 = DIRECTION ( 'NONE',  ( -3.598472008923184252E-31, -1.000000000000000000, -1.030643345817079849E-16 ) ) ;
#206 = COORDINATED_UNIVERSAL_TIME_OFFSET ( 1, 0, .AHEAD. ) ;
#207 = CARTESIAN_POINT ( 'NONE',  ( 0.0000000000000000000, 0.0000000000000000000, 0.0000000000000000000 ) ) ;
#208 = DATE_AND_TIME ( #179, #230 ) ;
#209 = CC_DESIGN_APPROVAL ( #201, ( #21 ) ) ;
#210 = AXIS2_PLACEMENT_3D ( 'NONE', #242, #130, #205 ) ;
#211 = CARTESIAN_POINT ( 'NONE',  ( 6.281823795492844412E-14, -1.854318916842698141E-15, 17.99185842870425489 ) ) ;
#212 = DIRECTION ( 'NONE',  ( -1.642517565628094913E-30, 1.000000000000000000, -4.704357280547076500E-16 ) ) ;
#213 = DIRECTION ( 'NONE',  ( -3.491481338843133355E-15, -4.704357280547076500E-16, -1.000000000000000000 ) ) ;
#214 = CARTESIAN_POINT ( 'NONE',  ( 6.036903161054363406E-14, 8.134011492976709375E-15, 17.29037785163883711 ) ) ;
#215 = CONICAL_SURFACE ( 'NONE', #19, 2.999999999999996003, 0.7853981633974453924 ) ;
#216 = PERSON_AND_ORGANIZATION ( #183, #238 ) ;
#217 = ORIENTED_EDGE ( 'NONE', *, *, #55, .F. ) ;
#218 = LOCAL_TIME ( 7, 52, 52.00000000000000000, #241 ) ;
#219 = CC_DESIGN_PERSON_AND_ORGANIZATION_ASSIGNMENT ( #53, #109, ( #14 ) ) ;
#220 = CLOSED_SHELL ( 'NONE', ( #193, #154, #195, #239, #46 ) ) ;
#221 = FACE_OUTER_BOUND ( 'NONE', #102, .T. ) ;
#222 = CONICAL_SURFACE ( 'NONE', #159, 3.404999999999999361, 0.5235987755982933756 ) ;
#223 = APPROVAL_STATUS ( 'not_yet_approved' ) ;
#224 = PRODUCT_RELATED_PRODUCT_CATEGORY ( 'detail', '', ( #75 ) ) ;
#225 = PERSON_AND_ORGANIZATION_ROLE ( 'classification_officer' ) ;
#226 = PRODUCT_DEFINITION_SHAPE ( 'NONE', 'NONE',  #21 ) ;
#227 = CARTESIAN_POINT ( 'NONE',  ( 3.505447264198505636E-13, -1.034765919200348261E-14, 100.4000000000000057 ) ) ;
#228 = VERTEX_POINT ( 'NONE', #97 ) ;
#229 = DIRECTION ( 'NONE',  ( -3.491481338843133355E-15, 1.030643345817079849E-16, -1.000000000000000000 ) ) ;
#230 = LOCAL_TIME ( 7, 52, 52.00000000000000000, #206 ) ;
#231 = DIRECTION ( 'NONE',  ( 3.491481338843133355E-15, 4.704357280547076500E-16, 1.000000000000000000 ) ) ;
#232 = VERTEX_POINT ( 'NONE', #18 ) ;
#233 = DIRECTION ( 'NONE',  ( -3.491481338843133355E-15, 1.030643345817079849E-16, -1.000000000000000000 ) ) ;
#234 = DIRECTION ( 'NONE',  ( -1.642517565628094913E-30, 1.000000000000000000, -4.704357280547076500E-16 ) ) ;
#235 = APPROVAL_DATE_TIME ( #92, #17 ) ;
#236 = DIRECTION ( 'NONE',  ( -3.491481338843133355E-15, 1.030643345817079849E-16, -1.000000000000000000 ) ) ;
#237 = EDGE_LOOP ( 'NONE', ( #105 ) ) ;
#238 = ORGANIZATION ( 'UNSPECIFIED', 'UNSPECIFIED', '' ) ;
#239 = ADVANCED_FACE ( 'NONE', ( #116, #136 ), #222, .T. ) ;
#240 = CIRCLE ( 'NONE', #79, 2.999999999999996003 ) ;
#241 = COORDINATED_UNIVERSAL_TIME_OFFSET ( 1, 0, .AHEAD. ) ;
#242 = CARTESIAN_POINT ( 'NONE',  ( 3.526396152231565067E-13, -1.040949779275250653E-14, 101.0000000000000000 ) ) ;
#243 = PERSON_AND_ORGANIZATION ( #183, #238 ) ;
ENDSEC;
END-ISO-10303-21;
