ISO-10303-21;
HEADER;
FILE_DESCRIPTION (( 'STEP AP203' ),
    '1' );
FILE_NAME ('341720.step',
    '2021-11-26T06:52:51',
    ( '' ),
    ( '' ),
    'SwSTEP 2.0',
    'SolidWorks 2019',
    '' );
FILE_SCHEMA (( 'CONFIG_CONTROL_DESIGN' ));
ENDSEC;

DATA;
#1 = DIRECTION ( 'NONE',  ( 0.0000000000000000000, 1.000000000000000000, 0.0000000000000000000 ) ) ;
#2 = DIRECTION ( 'NONE',  ( -3.491481338843133355E-15, -4.668705267072234211E-16, -1.000000000000000000 ) ) ;
#3 = ADVANCED_FACE ( 'NONE', ( #25 ), #229, .T. ) ;
#4 = ORIENTED_EDGE ( 'NONE', *, *, #119, .T. ) ;
#5 = APPROVAL_ROLE ( '' ) ;
#6 = CIRCLE ( 'NONE', #144, 2.999999999999996003 ) ;
#7 = APPLICATION_CONTEXT ( 'configuration controlled 3d designs of mechanical parts and assemblies' ) ;
#8 = CARTESIAN_POINT ( 'NONE',  ( 6.067140276417138450E-14, 8.112799988202205335E-15, 17.37698039201728761 ) ) ;
#9 = ORIENTED_EDGE ( 'NONE', *, *, #12, .F. ) ;
#10 = CALENDAR_DATE ( 2021, 26, 11 ) ;
#11 = APPROVAL_PERSON_ORGANIZATION ( #37, #147, #165 ) ;
#12 = EDGE_CURVE ( 'NONE', #80, #80, #84, .T. ) ;
#13 = CARTESIAN_POINT ( 'NONE',  ( -2.546217735176135727E-30, 3.124059892324148269, -7.292657436971434524E-16 ) ) ;
#14 = APPLICATION_PROTOCOL_DEFINITION ( 'international standard', 'config_control_design', 1994, #86 ) ;
#15 = UNCERTAINTY_MEASURE_WITH_UNIT (LENGTH_MEASURE( 1.000000000000000082E-05 ), #194, 'distance_accuracy_value', 'NONE');
#16 = CALENDAR_DATE ( 2021, 26, 11 ) ;
#17 = AXIS2_PLACEMENT_3D ( 'NONE', #202, #2, #235 ) ;
#18 = PRODUCT ( '341720', '341720', '', ( #193 ) ) ;
#19 = DIRECTION ( 'NONE',  ( -3.491481338843133355E-15, 1.030643345817079849E-16, -1.000000000000000000 ) ) ;
#20 = ADVANCED_FACE ( 'NONE', ( #151 ), #43, .T. ) ;
#21 = CARTESIAN_POINT ( 'NONE',  ( 0.0000000000000000000, 0.0000000000000000000, 0.0000000000000000000 ) ) ;
#22 = FACE_BOUND ( 'NONE', #87, .T. ) ;
#23 = LOCAL_TIME ( 7, 52, 51.00000000000000000, #177 ) ;
#24 = EDGE_LOOP ( 'NONE', ( #176 ) ) ;
#25 = FACE_OUTER_BOUND ( 'NONE', #62, .T. ) ;
#26 = COORDINATED_UNIVERSAL_TIME_OFFSET ( 1, 0, .AHEAD. ) ;
#27 = CARTESIAN_POINT ( 'NONE',  ( 6.281823795492845674E-14, -1.854318916842698535E-15, 17.99185842870425844 ) ) ;
#28 = ADVANCED_FACE ( 'NONE', ( #137 ), #118, .T. ) ;
#29 = ORIENTED_EDGE ( 'NONE', *, *, #111, .T. ) ;
#30 = PERSON_AND_ORGANIZATION_ROLE ( 'design_supplier' ) ;
#31 = ORIENTED_EDGE ( 'NONE', *, *, #180, .F. ) ;
#32 = DIRECTION ( 'NONE',  ( -3.491481338843133355E-15, 1.030643345817079849E-16, -1.000000000000000000 ) ) ;
#33 = PERSON_AND_ORGANIZATION_ROLE ( 'classification_officer' ) ;
#34 = DIRECTION ( 'NONE',  ( 0.0000000000000000000, 1.000000000000000000, 0.0000000000000000000 ) ) ;
#35 = ORGANIZATION ( 'UNSPECIFIED', 'UNSPECIFIED', '' ) ;
#36 =( NAMED_UNIT ( * ) PLANE_ANGLE_UNIT ( ) SI_UNIT ( $, .RADIAN. ) );
#37 = PERSON_AND_ORGANIZATION ( #127, #35 ) ;
#38 = AXIS2_PLACEMENT_3D ( 'NONE', #109, #178, #156 ) ;
#39 = AXIS2_PLACEMENT_3D ( 'NONE', #216, #239, #75 ) ;
#40 = CARTESIAN_POINT ( 'NONE',  ( 3.505447264198505636E-13, -1.034765919200348261E-14, 100.4000000000000057 ) ) ;
#41 = CC_DESIGN_DATE_AND_TIME_ASSIGNMENT ( #158, #49, ( #131 ) ) ;
#42 = CARTESIAN_POINT ( 'NONE',  ( 3.505447264198505636E-13, 2.999999999999985789, 100.4000000000000057 ) ) ;
#43 = PLANE ( 'NONE',  #213 ) ;
#44 = CARTESIAN_POINT ( 'NONE',  ( 5.092435470352271455E-30, 6.809453637388406210E-31, 1.458531487394286905E-15 ) ) ;
#45 = DIRECTION ( 'NONE',  ( 3.491481338843133355E-15, -1.030643345817079849E-16, 1.000000000000000000 ) ) ;
#46 = APPROVAL_DATE_TIME ( #188, #147 ) ;
#47 = DIRECTION ( 'NONE',  ( 1.630069731654135452E-30, -1.000000000000000000, 4.668705267072234211E-16 ) ) ;
#48 = ORIENTED_EDGE ( 'NONE', *, *, #215, .T. ) ;
#49 = DATE_TIME_ROLE ( 'creation_date' ) ;
#50 = AXIS2_PLACEMENT_3D ( 'NONE', #191, #32, #34 ) ;
#51 = CARTESIAN_POINT ( 'NONE',  ( 6.067140276417137187E-14, 8.112799988202203757E-15, 17.37698039201728406 ) ) ;
#52 = CC_DESIGN_APPROVAL ( #197, ( #92 ) ) ;
#53 = COORDINATED_UNIVERSAL_TIME_OFFSET ( 1, 0, .AHEAD. ) ;
#54 = CONICAL_SURFACE ( 'NONE', #226, 3.354999999999999538, 0.5235987755982938197 ) ;
#55 = CARTESIAN_POINT ( 'NONE',  ( 1.396592535537258470E-15, 1.867482106828900686E-16, 0.4000000000000014655 ) ) ;
#56 = CARTESIAN_POINT ( 'NONE',  ( 1.396592535537253145E-15, 3.354999999999998206, 0.3999999999999999112 ) ) ;
#57 = CC_DESIGN_PERSON_AND_ORGANIZATION_ASSIGNMENT ( #159, #30, ( #92 ) ) ;
#58 = FACE_OUTER_BOUND ( 'NONE', #91, .T. ) ;
#59 = APPROVAL ( #236, 'UNSPECIFIED' ) ;
#60 = DIRECTION ( 'NONE',  ( 3.598472008923184252E-31, 1.000000000000000000, 1.030643345817079726E-16 ) ) ;
#61 = CLOSED_SHELL ( 'NONE', ( #3, #222, #63, #218, #28 ) ) ;
#62 = EDGE_LOOP ( 'NONE', ( #206 ) ) ;
#63 = ADVANCED_FACE ( 'NONE', ( #185, #174 ), #125, .T. ) ;
#64 = APPROVAL_STATUS ( 'not_yet_approved' ) ;
#65 = COORDINATED_UNIVERSAL_TIME_OFFSET ( 1, 0, .AHEAD. ) ;
#66 = COORDINATED_UNIVERSAL_TIME_OFFSET ( 1, 0, .AHEAD. ) ;
#67 = DIRECTION ( 'NONE',  ( 3.491481338843133355E-15, 4.668705267072234211E-16, 1.000000000000000000 ) ) ;
#68 = CIRCLE ( 'NONE', #232, 2.999999999999989786 ) ;
#69 = LOCAL_TIME ( 7, 52, 51.00000000000000000, #65 ) ;
#70 = ADVANCED_FACE ( 'NONE', ( #83 ), #241, .T. ) ;
#71 = EDGE_LOOP ( 'NONE', ( #31 ) ) ;
#72 = APPROVAL_ROLE ( '' ) ;
#73 = ADVANCED_BREP_SHAPE_REPRESENTATION ( '341720', ( #89, #224, #110 ), #167 ) ;
#74 = CLOSED_SHELL ( 'NONE', ( #20, #140, #237, #70 ) ) ;
#75 = DIRECTION ( 'NONE',  ( 0.0000000000000000000, 1.000000000000000000, 0.0000000000000000000 ) ) ;
#76 = DIRECTION ( 'NONE',  ( 0.0000000000000000000, 1.000000000000000000, 0.0000000000000000000 ) ) ;
#77 = LOCAL_TIME ( 7, 52, 51.00000000000000000, #53 ) ;
#78 = FACE_OUTER_BOUND ( 'NONE', #208, .T. ) ;
#79 = FACE_OUTER_BOUND ( 'NONE', #234, .T. ) ;
#80 = VERTEX_POINT ( 'NONE', #182 ) ;
#81 = AXIS2_PLACEMENT_3D ( 'NONE', #189, #45, #231 ) ;
#82 = EDGE_LOOP ( 'NONE', ( #4 ) ) ;
#83 = FACE_OUTER_BOUND ( 'NONE', #24, .T. ) ;
#84 = CIRCLE ( 'NONE', #117, 3.354999999999989324 ) ;
#85 = AXIS2_PLACEMENT_3D ( 'NONE', #150, #19, #1 ) ;
#86 = APPLICATION_CONTEXT ( 'configuration controlled 3d designs of mechanical parts and assemblies' ) ;
#87 = EDGE_LOOP ( 'NONE', ( #48 ) ) ;
#88 = ORIENTED_EDGE ( 'NONE', *, *, #135, .T. ) ;
#89 = MANIFOLD_SOLID_BREP ( 'Corps-Déplacer/Copier1[1]', #61 ) ;
#90 = PRODUCT_RELATED_PRODUCT_CATEGORY ( 'detail', '', ( #18 ) ) ;
#91 = EDGE_LOOP ( 'NONE', ( #88 ) ) ;
#92 = PRODUCT_DEFINITION_FORMATION_WITH_SPECIFIED_SOURCE ( 'ANY', '', #18, .NOT_KNOWN. ) ;
#93 = DATE_AND_TIME ( #10, #23 ) ;
#94 = CIRCLE ( 'NONE', #50, 2.399999999999996358 ) ;
#95 =( NAMED_UNIT ( * ) SI_UNIT ( $, .STERADIAN. ) SOLID_ANGLE_UNIT ( ) );
#96 = CC_DESIGN_DATE_AND_TIME_ASSIGNMENT ( #93, #163, ( #196 ) ) ;
#97 = LOCAL_TIME ( 7, 52, 51.00000000000000000, #26 ) ;
#98 = CYLINDRICAL_SURFACE ( 'NONE', #17, 3.354999999999993765 ) ;
#99 = VERTEX_POINT ( 'NONE', #168 ) ;
#100 = CARTESIAN_POINT ( 'NONE',  ( 6.067140276417137187E-14, -1.790946921142648657E-15, 17.37698039201728406 ) ) ;
#101 = ORIENTED_EDGE ( 'NONE', *, *, #215, .F. ) ;
#102 = DATE_AND_TIME ( #187, #69 ) ;
#103 = EDGE_LOOP ( 'NONE', ( #227 ) ) ;
#104 = AXIS2_PLACEMENT_3D ( 'NONE', #13, #132, #166 ) ;
#105 = CALENDAR_DATE ( 2021, 26, 11 ) ;
#106 = CC_DESIGN_PERSON_AND_ORGANIZATION_ASSIGNMENT ( #228, #207, ( #92 ) ) ;
#107 = DATE_AND_TIME ( #210, #219 ) ;
#108 = EDGE_LOOP ( 'NONE', ( #9 ) ) ;
#109 = CARTESIAN_POINT ( 'NONE',  ( 5.092435470352271455E-30, 6.809453637388406210E-31, 1.458531487394286905E-15 ) ) ;
#110 = AXIS2_PLACEMENT_3D ( 'NONE', #112, #195, #128 ) ;
#111 = EDGE_CURVE ( 'NONE', #198, #198, #6, .T. ) ;
#112 = CARTESIAN_POINT ( 'NONE',  ( 0.0000000000000000000, 0.0000000000000000000, 0.0000000000000000000 ) ) ;
#113 = CARTESIAN_POINT ( 'NONE',  ( 3.526396152231565067E-13, 2.399999999999985700, 101.0000000000000000 ) ) ;
#114 = APPROVAL_STATUS ( 'not_yet_approved' ) ;
#115 = VERTEX_POINT ( 'NONE', #238 ) ;
#116 = FACE_OUTER_BOUND ( 'NONE', #103, .T. ) ;
#117 = AXIS2_PLACEMENT_3D ( 'NONE', #51, #175, #139 ) ;
#118 = PLANE ( 'NONE',  #203 ) ;
#119 = EDGE_CURVE ( 'NONE', #99, #99, #172, .T. ) ;
#120 = CC_DESIGN_PERSON_AND_ORGANIZATION_ASSIGNMENT ( #123, #209, ( #131 ) ) ;
#121 = DIRECTION ( 'NONE',  ( 3.598472008923184252E-31, 1.000000000000000000, 1.030643345817079849E-16 ) ) ;
#122 = EDGE_LOOP ( 'NONE', ( #138 ) ) ;
#123 = PERSON_AND_ORGANIZATION ( #127, #35 ) ;
#124 = CIRCLE ( 'NONE', #148, 3.354999999999998206 ) ;
#125 = CYLINDRICAL_SURFACE ( 'NONE', #200, 2.999999999999993339 ) ;
#126 = CONICAL_SURFACE ( 'NONE', #136, 3.124059892324148269, 0.5235987755982979275 ) ;
#127 = PERSON ( 'UNSPECIFIED', 'UNSPECIFIED', 'UNSPECIFIED', ('UNSPECIFIED'), ('UNSPECIFIED'), ('UNSPECIFIED') ) ;
#128 = DIRECTION ( 'NONE',  ( 1.000000000000000000, 0.0000000000000000000, 0.0000000000000000000 ) ) ;
#129 = VERTEX_POINT ( 'NONE', #113 ) ;
#130 = APPLICATION_PROTOCOL_DEFINITION ( 'international standard', 'config_control_design', 1994, #7 ) ;
#131 = PRODUCT_DEFINITION ( 'UNKNOWN', '', #92, #145 ) ;
#132 = DIRECTION ( 'NONE',  ( -3.491481338843133355E-15, -4.668705267072234211E-16, -1.000000000000000000 ) ) ;
#133 = DIRECTION ( 'NONE',  ( 3.491481338843133355E-15, 4.668705267072234211E-16, 1.000000000000000000 ) ) ;
#134 = FACE_BOUND ( 'NONE', #71, .T. ) ;
#135 = EDGE_CURVE ( 'NONE', #243, #243, #124, .T. ) ;
#136 = AXIS2_PLACEMENT_3D ( 'NONE', #44, #133, #223 ) ;
#137 = FACE_OUTER_BOUND ( 'NONE', #82, .T. ) ;
#138 = ORIENTED_EDGE ( 'NONE', *, *, #171, .T. ) ;
#139 = DIRECTION ( 'NONE',  ( 0.0000000000000000000, 1.000000000000000000, 0.0000000000000000000 ) ) ;
#140 = ADVANCED_FACE ( 'NONE', ( #79, #205 ), #98, .T. ) ;
#141 = PERSON_AND_ORGANIZATION ( #127, #35 ) ;
#142 = CARTESIAN_POINT ( 'NONE',  ( 6.067140276417138450E-14, 3.354999999999997762, 17.37698039201728761 ) ) ;
#143 = CIRCLE ( 'NONE', #38, 3.124059892324148269 ) ;
#144 = AXIS2_PLACEMENT_3D ( 'NONE', #40, #146, #76 ) ;
#145 = DESIGN_CONTEXT ( 'detailed design', #86, 'design' ) ;
#146 = DIRECTION ( 'NONE',  ( -3.491481338843133355E-15, 1.030643345817079849E-16, -1.000000000000000000 ) ) ;
#147 = APPROVAL ( #114, 'UNSPECIFIED' ) ;
#148 = AXIS2_PLACEMENT_3D ( 'NONE', #55, #152, #169 ) ;
#149 = DIRECTION ( 'NONE',  ( 0.0000000000000000000, 1.000000000000000000, 0.0000000000000000000 ) ) ;
#150 = CARTESIAN_POINT ( 'NONE',  ( 3.505447264198505636E-13, -1.034765919200348261E-14, 100.4000000000000057 ) ) ;
#151 = FACE_OUTER_BOUND ( 'NONE', #108, .T. ) ;
#152 = DIRECTION ( 'NONE',  ( -3.491481338843133355E-15, -4.668705267072234211E-16, -1.000000000000000000 ) ) ;
#153 = APPROVAL_PERSON_ORGANIZATION ( #230, #197, #5 ) ;
#154 = ORIENTED_EDGE ( 'NONE', *, *, #119, .F. ) ;
#155 = APPROVAL_DATE_TIME ( #102, #197 ) ;
#156 = DIRECTION ( 'NONE',  ( -1.630069731654135452E-30, 1.000000000000000000, -4.668705267072234211E-16 ) ) ;
#157 = EDGE_LOOP ( 'NONE', ( #29 ) ) ;
#158 = DATE_AND_TIME ( #105, #97 ) ;
#159 = PERSON_AND_ORGANIZATION ( #127, #35 ) ;
#160 = CC_DESIGN_SECURITY_CLASSIFICATION ( #196, ( #92 ) ) ;
#161 = APPROVAL_DATE_TIME ( #107, #59 ) ;
#162 = CC_DESIGN_PERSON_AND_ORGANIZATION_ASSIGNMENT ( #233, #33, ( #196 ) ) ;
#163 = DATE_TIME_ROLE ( 'classification_date' ) ;
#164 = SHAPE_DEFINITION_REPRESENTATION ( #186, #73 ) ;
#165 = APPROVAL_ROLE ( '' ) ;
#166 = DIRECTION ( 'NONE',  ( -1.630069731654135452E-30, 1.000000000000000000, -4.668705267072234211E-16 ) ) ;
#167 =( GEOMETRIC_REPRESENTATION_CONTEXT ( 3 ) GLOBAL_UNCERTAINTY_ASSIGNED_CONTEXT ( ( #15 ) ) GLOBAL_UNIT_ASSIGNED_CONTEXT ( ( #194, #36, #95 ) ) REPRESENTATION_CONTEXT ( 'NONE', 'WORKASPACE' ) );
#168 = CARTESIAN_POINT ( 'NONE',  ( 6.067140276417137187E-14, 3.354999999999997762, 17.37698039201728406 ) ) ;
#169 = DIRECTION ( 'NONE',  ( -1.607333485628692503E-30, 1.000000000000000000, -4.685821609847935613E-16 ) ) ;
#170 = FACE_BOUND ( 'NONE', #122, .T. ) ;
#171 = EDGE_CURVE ( 'NONE', #129, #129, #94, .T. ) ;
#172 = CIRCLE ( 'NONE', #39, 3.354999999999999538 ) ;
#173 = EDGE_LOOP ( 'NONE', ( #101 ) ) ;
#174 = FACE_OUTER_BOUND ( 'NONE', #173, .T. ) ;
#175 = DIRECTION ( 'NONE',  ( -3.491481338843133355E-15, -4.668705267072234211E-16, -1.000000000000000000 ) ) ;
#176 = ORIENTED_EDGE ( 'NONE', *, *, #180, .T. ) ;
#177 = COORDINATED_UNIVERSAL_TIME_OFFSET ( 1, 0, .AHEAD. ) ;
#178 = DIRECTION ( 'NONE',  ( -3.491481338843133355E-15, -4.668705267072234211E-16, -1.000000000000000000 ) ) ;
#179 = PERSON_AND_ORGANIZATION_ROLE ( 'design_owner' ) ;
#180 = EDGE_CURVE ( 'NONE', #115, #115, #143, .T. ) ;
#181 = VERTEX_POINT ( 'NONE', #217 ) ;
#182 = CARTESIAN_POINT ( 'NONE',  ( 6.067140276417137187E-14, 3.354999999999997762, 17.37698039201728406 ) ) ;
#183 = ORIENTED_EDGE ( 'NONE', *, *, #135, .F. ) ;
#184 = APPROVAL_PERSON_ORGANIZATION ( #141, #59, #72 ) ;
#185 = FACE_OUTER_BOUND ( 'NONE', #157, .T. ) ;
#186 = PRODUCT_DEFINITION_SHAPE ( 'NONE', 'NONE',  #131 ) ;
#187 = CALENDAR_DATE ( 2021, 26, 11 ) ;
#188 = DATE_AND_TIME ( #16, #77 ) ;
#189 = CARTESIAN_POINT ( 'NONE',  ( 3.526396152231565067E-13, -1.040949779275250653E-14, 101.0000000000000000 ) ) ;
#190 = SECURITY_CLASSIFICATION_LEVEL ( 'unclassified' ) ;
#191 = CARTESIAN_POINT ( 'NONE',  ( 3.526396152231565067E-13, -1.040949779275250653E-14, 101.0000000000000000 ) ) ;
#192 = CC_DESIGN_APPROVAL ( #147, ( #131 ) ) ;
#193 = MECHANICAL_CONTEXT ( 'NONE', #7, 'mechanical' ) ;
#194 =( LENGTH_UNIT ( ) NAMED_UNIT ( * ) SI_UNIT ( .MILLI., .METRE. ) );
#195 = DIRECTION ( 'NONE',  ( 0.0000000000000000000, 0.0000000000000000000, 1.000000000000000000 ) ) ;
#196 = SECURITY_CLASSIFICATION ( '', '', #190 ) ;
#197 = APPROVAL ( #64, 'UNSPECIFIED' ) ;
#198 = VERTEX_POINT ( 'NONE', #42 ) ;
#199 = EDGE_LOOP ( 'NONE', ( #183 ) ) ;
#200 = AXIS2_PLACEMENT_3D ( 'NONE', #21, #225, #60 ) ;
#201 = DIRECTION ( 'NONE',  ( -3.491481338843133355E-15, 1.030643345817079849E-16, -1.000000000000000000 ) ) ;
#202 = CARTESIAN_POINT ( 'NONE',  ( 0.0000000000000000000, 0.0000000000000000000, 0.0000000000000000000 ) ) ;
#203 = AXIS2_PLACEMENT_3D ( 'NONE', #142, #211, #121 ) ;
#204 = ORIENTED_EDGE ( 'NONE', *, *, #12, .T. ) ;
#205 = FACE_OUTER_BOUND ( 'NONE', #199, .T. ) ;
#206 = ORIENTED_EDGE ( 'NONE', *, *, #171, .F. ) ;
#207 = PERSON_AND_ORGANIZATION_ROLE ( 'creator' ) ;
#208 = EDGE_LOOP ( 'NONE', ( #154 ) ) ;
#209 = PERSON_AND_ORGANIZATION_ROLE ( 'creator' ) ;
#210 = CALENDAR_DATE ( 2021, 26, 11 ) ;
#211 = DIRECTION ( 'NONE',  ( -3.491481338843133355E-15, 1.030643345817079849E-16, -1.000000000000000000 ) ) ;
#212 = PERSON_AND_ORGANIZATION ( #127, #35 ) ;
#213 = AXIS2_PLACEMENT_3D ( 'NONE', #8, #67, #47 ) ;
#214 = CC_DESIGN_APPROVAL ( #59, ( #196 ) ) ;
#215 = EDGE_CURVE ( 'NONE', #181, #181, #68, .T. ) ;
#216 = CARTESIAN_POINT ( 'NONE',  ( 6.067140276417137187E-14, -1.790946921142648657E-15, 17.37698039201728406 ) ) ;
#217 = CARTESIAN_POINT ( 'NONE',  ( 6.281823795492845674E-14, 2.999999999999988010, 17.99185842870425844 ) ) ;
#218 = ADVANCED_FACE ( 'NONE', ( #22, #78 ), #54, .T. ) ;
#219 = LOCAL_TIME ( 7, 52, 51.00000000000000000, #66 ) ;
#220 = DIRECTION ( 'NONE',  ( 0.0000000000000000000, 1.000000000000000000, 0.0000000000000000000 ) ) ;
#221 = DIRECTION ( 'NONE',  ( -3.491481338843133355E-15, 1.030643345817079849E-16, -1.000000000000000000 ) ) ;
#222 = ADVANCED_FACE ( 'NONE', ( #170, #116 ), #242, .T. ) ;
#223 = DIRECTION ( 'NONE',  ( 1.630069731654135802E-30, -1.000000000000000000, 4.668705267072234211E-16 ) ) ;
#224 = MANIFOLD_SOLID_BREP ( 'Corps-Déplacer/Copier1[2]', #74 ) ;
#225 = DIRECTION ( 'NONE',  ( -3.491481338843133355E-15, 1.030643345817079849E-16, -1.000000000000000000 ) ) ;
#226 = AXIS2_PLACEMENT_3D ( 'NONE', #100, #201, #149 ) ;
#227 = ORIENTED_EDGE ( 'NONE', *, *, #111, .F. ) ;
#228 = PERSON_AND_ORGANIZATION ( #127, #35 ) ;
#229 = PLANE ( 'NONE',  #81 ) ;
#230 = PERSON_AND_ORGANIZATION ( #127, #35 ) ;
#231 = DIRECTION ( 'NONE',  ( -3.598472008923184252E-31, -1.000000000000000000, -1.030643345817079849E-16 ) ) ;
#232 = AXIS2_PLACEMENT_3D ( 'NONE', #27, #221, #220 ) ;
#233 = PERSON_AND_ORGANIZATION ( #127, #35 ) ;
#234 = EDGE_LOOP ( 'NONE', ( #204 ) ) ;
#235 = DIRECTION ( 'NONE',  ( -1.630069731654135452E-30, 1.000000000000000000, -4.668705267072234211E-16 ) ) ;
#236 = APPROVAL_STATUS ( 'not_yet_approved' ) ;
#237 = ADVANCED_FACE ( 'NONE', ( #58, #134 ), #126, .T. ) ;
#238 = CARTESIAN_POINT ( 'NONE',  ( -6.842277657836020854E-46, 3.124059892324148269, 0.0000000000000000000 ) ) ;
#239 = DIRECTION ( 'NONE',  ( -3.491481338843133355E-15, 1.030643345817079849E-16, -1.000000000000000000 ) ) ;
#240 = CC_DESIGN_PERSON_AND_ORGANIZATION_ASSIGNMENT ( #212, #179, ( #18 ) ) ;
#241 = PLANE ( 'NONE',  #104 ) ;
#242 = CONICAL_SURFACE ( 'NONE', #85, 2.999999999999996003, 0.7853981633974453924 ) ;
#243 = VERTEX_POINT ( 'NONE', #56 ) ;
ENDSEC;
END-ISO-10303-21;
