ISO-10303-21;
HEADER;
FILE_DESCRIPTION (( 'STEP AP203' ),
    '1' );
FILE_NAME ('341710.step',
    '2021-11-26T06:52:51',
    ( '' ),
    ( '' ),
    'SwSTEP 2.0',
    'SolidWorks 2019',
    '' );
FILE_SCHEMA (( 'CONFIG_CONTROL_DESIGN' ));
ENDSEC;

DATA;
#1 = EDGE_LOOP ( 'NONE', ( #90 ) ) ;
#2 = AXIS2_PLACEMENT_3D ( 'NONE', #211, #108, #190 ) ;
#3 = CONICAL_SURFACE ( 'NONE', #165, 3.074059892324148002, 0.5235987755982979275 ) ;
#4 = FACE_OUTER_BOUND ( 'NONE', #207, .T. ) ;
#5 = DIRECTION ( 'NONE',  ( -3.491481338843133355E-15, 1.030643345817079849E-16, -1.000000000000000000 ) ) ;
#6 = PERSON_AND_ORGANIZATION ( #107, #235 ) ;
#7 = PRODUCT_DEFINITION ( 'UNKNOWN', '', #120, #142 ) ;
#8 = APPLICATION_PROTOCOL_DEFINITION ( 'international standard', 'config_control_design', 1994, #141 ) ;
#9 = AXIS2_PLACEMENT_3D ( 'NONE', #127, #144, #192 ) ;
#10 = EDGE_LOOP ( 'NONE', ( #161 ) ) ;
#11 = PERSON_AND_ORGANIZATION_ROLE ( 'classification_officer' ) ;
#12 = ORIENTED_EDGE ( 'NONE', *, *, #54, .F. ) ;
#13 = SECURITY_CLASSIFICATION_LEVEL ( 'unclassified' ) ;
#14 = APPROVAL_STATUS ( 'not_yet_approved' ) ;
#15 = APPROVAL_DATE_TIME ( #223, #130 ) ;
#16 = ADVANCED_FACE ( 'NONE', ( #31 ), #197, .T. ) ;
#17 = SHAPE_DEFINITION_REPRESENTATION ( #173, #184 ) ;
#18 = ADVANCED_FACE ( 'NONE', ( #82 ), #138, .T. ) ;
#19 = FACE_OUTER_BOUND ( 'NONE', #10, .T. ) ;
#20 = AXIS2_PLACEMENT_3D ( 'NONE', #208, #105, #115 ) ;
#21 = FACE_OUTER_BOUND ( 'NONE', #1, .T. ) ;
#22 = EDGE_LOOP ( 'NONE', ( #176 ) ) ;
#23 = ADVANCED_FACE ( 'NONE', ( #94, #160 ), #3, .T. ) ;
#24 = ORIENTED_EDGE ( 'NONE', *, *, #193, .T. ) ;
#25 =( LENGTH_UNIT ( ) NAMED_UNIT ( * ) SI_UNIT ( .MILLI., .METRE. ) );
#26 = EDGE_LOOP ( 'NONE', ( #174 ) ) ;
#27 = EDGE_CURVE ( 'NONE', #61, #61, #126, .T. ) ;
#28 = EDGE_LOOP ( 'NONE', ( #146 ) ) ;
#29 = COORDINATED_UNIVERSAL_TIME_OFFSET ( 1, 0, .AHEAD. ) ;
#30 = LOCAL_TIME ( 7, 52, 51.00000000000000000, #29 ) ;
#31 = FACE_OUTER_BOUND ( 'NONE', #195, .T. ) ;
#32 = APPROVAL_DATE_TIME ( #117, #125 ) ;
#33 = APPROVAL_ROLE ( '' ) ;
#34 = AXIS2_PLACEMENT_3D ( 'NONE', #68, #205, #183 ) ;
#35 =( GEOMETRIC_REPRESENTATION_CONTEXT ( 3 ) GLOBAL_UNCERTAINTY_ASSIGNED_CONTEXT ( ( #134 ) ) GLOBAL_UNIT_ASSIGNED_CONTEXT ( ( #25, #179, #133 ) ) REPRESENTATION_CONTEXT ( 'NONE', 'WORKASPACE' ) );
#36 = VERTEX_POINT ( 'NONE', #102 ) ;
#37 = APPROVAL_ROLE ( '' ) ;
#38 = ADVANCED_FACE ( 'NONE', ( #180, #124 ), #219, .T. ) ;
#39 = AXIS2_PLACEMENT_3D ( 'NONE', #230, #41, #109 ) ;
#40 = CC_DESIGN_DATE_AND_TIME_ASSIGNMENT ( #81, #99, ( #128 ) ) ;
#41 = DIRECTION ( 'NONE',  ( -3.491481338843133355E-15, 1.030643345817079849E-16, -1.000000000000000000 ) ) ;
#42 = DIRECTION ( 'NONE',  ( -3.491481338843133355E-15, 1.030643345817079849E-16, -1.000000000000000000 ) ) ;
#43 = DIRECTION ( 'NONE',  ( -3.491481338843133355E-15, 1.030643345817079849E-16, -1.000000000000000000 ) ) ;
#44 = LOCAL_TIME ( 7, 52, 51.00000000000000000, #67 ) ;
#45 = VERTEX_POINT ( 'NONE', #98 ) ;
#46 = DATE_AND_TIME ( #162, #227 ) ;
#47 = EDGE_LOOP ( 'NONE', ( #12 ) ) ;
#48 = APPROVAL_DATE_TIME ( #46, #221 ) ;
#49 = ORIENTED_EDGE ( 'NONE', *, *, #65, .T. ) ;
#50 = CARTESIAN_POINT ( 'NONE',  ( 0.0000000000000000000, 0.0000000000000000000, 0.0000000000000000000 ) ) ;
#51 = DIRECTION ( 'NONE',  ( -3.491481338843133355E-15, 1.030643345817079849E-16, -1.000000000000000000 ) ) ;
#52 = PERSON_AND_ORGANIZATION_ROLE ( 'creator' ) ;
#53 = DIRECTION ( 'NONE',  ( 3.491481338843133355E-15, -1.030643345817079849E-16, 1.000000000000000000 ) ) ;
#54 = EDGE_CURVE ( 'NONE', #226, #226, #185, .T. ) ;
#55 = CC_DESIGN_APPROVAL ( #130, ( #128 ) ) ;
#56 = AXIS2_PLACEMENT_3D ( 'NONE', #50, #63, #123 ) ;
#57 = CALENDAR_DATE ( 2021, 26, 11 ) ;
#58 = AXIS2_PLACEMENT_3D ( 'NONE', #101, #51, #97 ) ;
#59 = AXIS2_PLACEMENT_3D ( 'NONE', #191, #153, #214 ) ;
#60 = CARTESIAN_POINT ( 'NONE',  ( 6.281823795492845674E-14, -1.854318916842698535E-15, 17.99185842870425844 ) ) ;
#61 = VERTEX_POINT ( 'NONE', #132 ) ;
#62 = CARTESIAN_POINT ( 'NONE',  ( 6.097377391779912231E-14, -1.799872554339838331E-15, 17.46358293239572745 ) ) ;
#63 = DIRECTION ( 'NONE',  ( 0.0000000000000000000, 0.0000000000000000000, 1.000000000000000000 ) ) ;
#64 = CALENDAR_DATE ( 2021, 26, 11 ) ;
#65 = EDGE_CURVE ( 'NONE', #36, #36, #168, .T. ) ;
#66 = ORIENTED_EDGE ( 'NONE', *, *, #200, .F. ) ;
#67 = COORDINATED_UNIVERSAL_TIME_OFFSET ( 1, 0, .AHEAD. ) ;
#68 = CARTESIAN_POINT ( 'NONE',  ( 3.505447264198505636E-13, -1.034765919200348261E-14, 100.4000000000000057 ) ) ;
#69 = CIRCLE ( 'NONE', #199, 2.999999999999989786 ) ;
#70 = EDGE_LOOP ( 'NONE', ( #143 ) ) ;
#71 = CC_DESIGN_SECURITY_CLASSIFICATION ( #128, ( #120 ) ) ;
#72 = AXIS2_PLACEMENT_3D ( 'NONE', #131, #73, #229 ) ;
#73 = DIRECTION ( 'NONE',  ( -3.491481338843133355E-15, -4.633406852850029477E-16, -1.000000000000000000 ) ) ;
#74 = CYLINDRICAL_SURFACE ( 'NONE', #39, 2.999999999999993339 ) ;
#75 = DIRECTION ( 'NONE',  ( 0.0000000000000000000, 1.000000000000000000, 0.0000000000000000000 ) ) ;
#76 = COORDINATED_UNIVERSAL_TIME_OFFSET ( 1, 0, .AHEAD. ) ;
#77 = LOCAL_TIME ( 7, 52, 51.00000000000000000, #85 ) ;
#78 = DIRECTION ( 'NONE',  ( -3.598472008923184252E-31, -1.000000000000000000, -1.030643345817079849E-16 ) ) ;
#79 = CC_DESIGN_APPROVAL ( #221, ( #7 ) ) ;
#80 = CARTESIAN_POINT ( 'NONE',  ( 1.396592535537252948E-15, 3.304999999999997495, 0.3999999999999999112 ) ) ;
#81 = DATE_AND_TIME ( #234, #181 ) ;
#82 = FACE_OUTER_BOUND ( 'NONE', #237, .T. ) ;
#83 = PERSON_AND_ORGANIZATION ( #107, #235 ) ;
#84 = DIRECTION ( 'NONE',  ( 1.617745356199376626E-30, -1.000000000000000000, 4.633406852850029477E-16 ) ) ;
#85 = COORDINATED_UNIVERSAL_TIME_OFFSET ( 1, 0, .AHEAD. ) ;
#86 = EDGE_LOOP ( 'NONE', ( #202 ) ) ;
#87 = CARTESIAN_POINT ( 'NONE',  ( 0.0000000000000000000, 0.0000000000000000000, 0.0000000000000000000 ) ) ;
#88 = CLOSED_SHELL ( 'NONE', ( #147, #118, #23, #104 ) ) ;
#89 = CARTESIAN_POINT ( 'NONE',  ( 6.097377391779912231E-14, 3.304999999999997939, 17.46358293239572745 ) ) ;
#90 = ORIENTED_EDGE ( 'NONE', *, *, #27, .T. ) ;
#91 = APPLICATION_PROTOCOL_DEFINITION ( 'international standard', 'config_control_design', 1994, #233 ) ;
#92 = PRODUCT_RELATED_PRODUCT_CATEGORY ( 'detail', '', ( #150 ) ) ;
#93 = EDGE_LOOP ( 'NONE', ( #158 ) ) ;
#94 = FACE_OUTER_BOUND ( 'NONE', #28, .T. ) ;
#95 = DIRECTION ( 'NONE',  ( 3.598472008923184252E-31, 1.000000000000000000, 1.030643345817079849E-16 ) ) ;
#96 = CARTESIAN_POINT ( 'NONE',  ( 6.281823795492845674E-14, 2.999999999999988010, 17.99185842870425844 ) ) ;
#97 = DIRECTION ( 'NONE',  ( 0.0000000000000000000, 1.000000000000000000, 0.0000000000000000000 ) ) ;
#98 = CARTESIAN_POINT ( 'NONE',  ( 3.526396152231565067E-13, 2.399999999999985700, 101.0000000000000000 ) ) ;
#99 = DATE_TIME_ROLE ( 'classification_date' ) ;
#100 = AXIS2_PLACEMENT_3D ( 'NONE', #62, #5, #75 ) ;
#101 = CARTESIAN_POINT ( 'NONE',  ( 3.505447264198505636E-13, -1.034765919200348261E-14, 100.4000000000000057 ) ) ;
#102 = CARTESIAN_POINT ( 'NONE',  ( 6.842277657836020854E-46, 3.074059892324148002, 0.0000000000000000000 ) ) ;
#103 = CLOSED_SHELL ( 'NONE', ( #18, #38, #170, #210, #16 ) ) ;
#104 = ADVANCED_FACE ( 'NONE', ( #4 ), #169, .T. ) ;
#105 = DIRECTION ( 'NONE',  ( -3.491481338843133355E-15, -4.633406852850029477E-16, -1.000000000000000000 ) ) ;
#106 = APPROVAL_PERSON_ORGANIZATION ( #157, #125, #236 ) ;
#107 = PERSON ( 'UNSPECIFIED', 'UNSPECIFIED', 'UNSPECIFIED', ('UNSPECIFIED'), ('UNSPECIFIED'), ('UNSPECIFIED') ) ;
#108 = DIRECTION ( 'NONE',  ( 3.491481338843133355E-15, 4.633406852850029477E-16, 1.000000000000000000 ) ) ;
#109 = DIRECTION ( 'NONE',  ( 3.598472008923184252E-31, 1.000000000000000000, 1.030643345817079726E-16 ) ) ;
#110 = EDGE_CURVE ( 'NONE', #206, #206, #166, .T. ) ;
#111 = FACE_OUTER_BOUND ( 'NONE', #93, .T. ) ;
#112 = DIRECTION ( 'NONE',  ( 0.0000000000000000000, 1.000000000000000000, 0.0000000000000000000 ) ) ;
#113 = APPROVAL_PERSON_ORGANIZATION ( #182, #130, #37 ) ;
#114 = APPROVAL_STATUS ( 'not_yet_approved' ) ;
#115 = DIRECTION ( 'NONE',  ( -1.617745356199376626E-30, 1.000000000000000000, -4.633406852850029477E-16 ) ) ;
#116 = DIRECTION ( 'NONE',  ( -3.491481338843133355E-15, 1.030643345817079849E-16, -1.000000000000000000 ) ) ;
#117 = DATE_AND_TIME ( #122, #44 ) ;
#118 = ADVANCED_FACE ( 'NONE', ( #111, #19 ), #188, .T. ) ;
#119 = CARTESIAN_POINT ( 'NONE',  ( 3.526396152231565067E-13, -1.040949779275250653E-14, 101.0000000000000000 ) ) ;
#120 = PRODUCT_DEFINITION_FORMATION_WITH_SPECIFIED_SOURCE ( 'ANY', '', #150, .NOT_KNOWN. ) ;
#121 = ORIENTED_EDGE ( 'NONE', *, *, #110, .F. ) ;
#122 = CALENDAR_DATE ( 2021, 26, 11 ) ;
#123 = DIRECTION ( 'NONE',  ( 1.000000000000000000, 0.0000000000000000000, 0.0000000000000000000 ) ) ;
#124 = FACE_OUTER_BOUND ( 'NONE', #22, .T. ) ;
#125 = APPROVAL ( #114, 'UNSPECIFIED' ) ;
#126 = CIRCLE ( 'NONE', #58, 2.999999999999996003 ) ;
#127 = CARTESIAN_POINT ( 'NONE',  ( 6.097377391779912231E-14, 8.091588483427717072E-15, 17.46358293239572745 ) ) ;
#128 = SECURITY_CLASSIFICATION ( '', '', #13 ) ;
#129 = DIRECTION ( 'NONE',  ( -1.617745356199376976E-30, 1.000000000000000000, -4.633406852850029477E-16 ) ) ;
#130 = APPROVAL ( #14, 'UNSPECIFIED' ) ;
#131 = CARTESIAN_POINT ( 'NONE',  ( 1.396592535537258272E-15, 1.853362741140018447E-16, 0.4000000000000014100 ) ) ;
#132 = CARTESIAN_POINT ( 'NONE',  ( 3.505447264198505636E-13, 2.999999999999985789, 100.4000000000000057 ) ) ;
#133 =( NAMED_UNIT ( * ) SI_UNIT ( $, .STERADIAN. ) SOLID_ANGLE_UNIT ( ) );
#134 = UNCERTAINTY_MEASURE_WITH_UNIT (LENGTH_MEASURE( 1.000000000000000082E-05 ), #25, 'distance_accuracy_value', 'NONE');
#135 = APPROVAL_STATUS ( 'not_yet_approved' ) ;
#136 = VERTEX_POINT ( 'NONE', #80 ) ;
#137 = PERSON_AND_ORGANIZATION ( #107, #235 ) ;
#138 = PLANE ( 'NONE',  #186 ) ;
#139 = AXIS2_PLACEMENT_3D ( 'NONE', #87, #145, #213 ) ;
#140 = CC_DESIGN_PERSON_AND_ORGANIZATION_ASSIGNMENT ( #137, #217, ( #150 ) ) ;
#141 = APPLICATION_CONTEXT ( 'configuration controlled 3d designs of mechanical parts and assemblies' ) ;
#142 = DESIGN_CONTEXT ( 'detailed design', #141, 'design' ) ;
#143 = ORIENTED_EDGE ( 'NONE', *, *, #65, .F. ) ;
#144 = DIRECTION ( 'NONE',  ( -3.491481338843133355E-15, -4.633406852850029477E-16, -1.000000000000000000 ) ) ;
#145 = DIRECTION ( 'NONE',  ( -3.491481338843133355E-15, -4.633406852850029477E-16, -1.000000000000000000 ) ) ;
#146 = ORIENTED_EDGE ( 'NONE', *, *, #189, .T. ) ;
#147 = ADVANCED_FACE ( 'NONE', ( #225 ), #149, .T. ) ;
#148 = DIRECTION ( 'NONE',  ( -3.491481338843133355E-15, -4.633406852850029477E-16, -1.000000000000000000 ) ) ;
#149 = PLANE ( 'NONE',  #2 ) ;
#150 = PRODUCT ( '341710', '341710', '', ( #159 ) ) ;
#151 = CARTESIAN_POINT ( 'NONE',  ( -2.486523057743073567E-30, 3.074059892324148002, -7.121685085583065693E-16 ) ) ;
#152 = CC_DESIGN_PERSON_AND_ORGANIZATION_ASSIGNMENT ( #6, #11, ( #128 ) ) ;
#153 = DIRECTION ( 'NONE',  ( -3.491481338843133355E-15, 1.030643345817079849E-16, -1.000000000000000000 ) ) ;
#154 = DATE_TIME_ROLE ( 'creation_date' ) ;
#155 = DIRECTION ( 'NONE',  ( 0.0000000000000000000, 1.000000000000000000, 0.0000000000000000000 ) ) ;
#156 = CIRCLE ( 'NONE', #59, 2.399999999999996358 ) ;
#157 = PERSON_AND_ORGANIZATION ( #107, #235 ) ;
#158 = ORIENTED_EDGE ( 'NONE', *, *, #54, .T. ) ;
#159 = MECHANICAL_CONTEXT ( 'NONE', #233, 'mechanical' ) ;
#160 = FACE_BOUND ( 'NONE', #70, .T. ) ;
#161 = ORIENTED_EDGE ( 'NONE', *, *, #189, .F. ) ;
#162 = CALENDAR_DATE ( 2021, 26, 11 ) ;
#163 = CARTESIAN_POINT ( 'NONE',  ( 6.097377391779912231E-14, 3.304999999999997939, 17.46358293239572745 ) ) ;
#164 = CC_DESIGN_PERSON_AND_ORGANIZATION_ASSIGNMENT ( #198, #177, ( #120 ) ) ;
#165 = AXIS2_PLACEMENT_3D ( 'NONE', #201, #239, #84 ) ;
#166 = CIRCLE ( 'NONE', #216, 3.304999999999999716 ) ;
#167 = EDGE_LOOP ( 'NONE', ( #24 ) ) ;
#168 = CIRCLE ( 'NONE', #20, 3.074059892324148002 ) ;
#169 = PLANE ( 'NONE',  #222 ) ;
#170 = ADVANCED_FACE ( 'NONE', ( #21, #228 ), #74, .T. ) ;
#171 = FACE_OUTER_BOUND ( 'NONE', #209, .T. ) ;
#172 = DATE_AND_TIME ( #64, #30 ) ;
#173 = PRODUCT_DEFINITION_SHAPE ( 'NONE', 'NONE',  #7 ) ;
#174 = ORIENTED_EDGE ( 'NONE', *, *, #200, .T. ) ;
#175 = CIRCLE ( 'NONE', #72, 3.304999999999997495 ) ;
#176 = ORIENTED_EDGE ( 'NONE', *, *, #27, .F. ) ;
#177 = PERSON_AND_ORGANIZATION_ROLE ( 'creator' ) ;
#178 = CC_DESIGN_DATE_AND_TIME_ASSIGNMENT ( #172, #154, ( #7 ) ) ;
#179 =( NAMED_UNIT ( * ) PLANE_ANGLE_UNIT ( ) SI_UNIT ( $, .RADIAN. ) );
#180 = FACE_BOUND ( 'NONE', #26, .T. ) ;
#181 = LOCAL_TIME ( 7, 52, 51.00000000000000000, #76 ) ;
#182 = PERSON_AND_ORGANIZATION ( #107, #235 ) ;
#183 = DIRECTION ( 'NONE',  ( 0.0000000000000000000, 1.000000000000000000, 0.0000000000000000000 ) ) ;
#184 = ADVANCED_BREP_SHAPE_REPRESENTATION ( '341710', ( #196, #194, #56 ), #35 ) ;
#185 = CIRCLE ( 'NONE', #9, 3.304999999999989946 ) ;
#186 = AXIS2_PLACEMENT_3D ( 'NONE', #119, #53, #78 ) ;
#187 = APPROVAL_PERSON_ORGANIZATION ( #83, #221, #33 ) ;
#188 = CYLINDRICAL_SURFACE ( 'NONE', #139, 3.304999999999993499 ) ;
#189 = EDGE_CURVE ( 'NONE', #136, #136, #175, .T. ) ;
#190 = DIRECTION ( 'NONE',  ( 1.617745356199376976E-30, -1.000000000000000000, 4.633406852850029477E-16 ) ) ;
#191 = CARTESIAN_POINT ( 'NONE',  ( 3.526396152231565067E-13, -1.040949779275250653E-14, 101.0000000000000000 ) ) ;
#192 = DIRECTION ( 'NONE',  ( 0.0000000000000000000, 1.000000000000000000, 0.0000000000000000000 ) ) ;
#193 = EDGE_CURVE ( 'NONE', #238, #238, #69, .T. ) ;
#194 = MANIFOLD_SOLID_BREP ( 'Corps-Déplacer/Copier1[2]', #88 ) ;
#195 = EDGE_LOOP ( 'NONE', ( #231 ) ) ;
#196 = MANIFOLD_SOLID_BREP ( 'Corps-Déplacer/Copier1[1]', #103 ) ;
#197 = PLANE ( 'NONE',  #241 ) ;
#198 = PERSON_AND_ORGANIZATION ( #107, #235 ) ;
#199 = AXIS2_PLACEMENT_3D ( 'NONE', #60, #43, #112 ) ;
#200 = EDGE_CURVE ( 'NONE', #45, #45, #156, .T. ) ;
#201 = CARTESIAN_POINT ( 'NONE',  ( 4.973046115486147135E-30, 6.599532895876084760E-31, 1.424337017116613139E-15 ) ) ;
#202 = ORIENTED_EDGE ( 'NONE', *, *, #193, .F. ) ;
#203 = COORDINATED_UNIVERSAL_TIME_OFFSET ( 1, 0, .AHEAD. ) ;
#204 = CONICAL_SURFACE ( 'NONE', #100, 3.304999999999999716, 0.5235987755982943748 ) ;
#205 = DIRECTION ( 'NONE',  ( -3.491481338843133355E-15, 1.030643345817079849E-16, -1.000000000000000000 ) ) ;
#206 = VERTEX_POINT ( 'NONE', #163 ) ;
#207 = EDGE_LOOP ( 'NONE', ( #49 ) ) ;
#208 = CARTESIAN_POINT ( 'NONE',  ( 4.973046115486147135E-30, 6.599532895876084760E-31, 1.424337017116613139E-15 ) ) ;
#209 = EDGE_LOOP ( 'NONE', ( #121 ) ) ;
#210 = ADVANCED_FACE ( 'NONE', ( #232, #171 ), #204, .T. ) ;
#211 = CARTESIAN_POINT ( 'NONE',  ( 6.097377391779910969E-14, 8.091588483427715495E-15, 17.46358293239572390 ) ) ;
#212 = CARTESIAN_POINT ( 'NONE',  ( 6.097377391779912231E-14, -1.799872554339838331E-15, 17.46358293239572745 ) ) ;
#213 = DIRECTION ( 'NONE',  ( -1.617745356199376976E-30, 1.000000000000000000, -4.633406852850029477E-16 ) ) ;
#214 = DIRECTION ( 'NONE',  ( 0.0000000000000000000, 1.000000000000000000, 0.0000000000000000000 ) ) ;
#215 = PERSON_AND_ORGANIZATION ( #107, #235 ) ;
#216 = AXIS2_PLACEMENT_3D ( 'NONE', #212, #42, #155 ) ;
#217 = PERSON_AND_ORGANIZATION_ROLE ( 'design_owner' ) ;
#218 = CARTESIAN_POINT ( 'NONE',  ( 6.097377391779910969E-14, 3.304999999999997939, 17.46358293239572390 ) ) ;
#219 = CONICAL_SURFACE ( 'NONE', #34, 2.999999999999996003, 0.7853981633974453924 ) ;
#220 = PERSON_AND_ORGANIZATION ( #107, #235 ) ;
#221 = APPROVAL ( #135, 'UNSPECIFIED' ) ;
#222 = AXIS2_PLACEMENT_3D ( 'NONE', #151, #148, #129 ) ;
#223 = DATE_AND_TIME ( #57, #77 ) ;
#224 = CC_DESIGN_PERSON_AND_ORGANIZATION_ASSIGNMENT ( #220, #52, ( #7 ) ) ;
#225 = FACE_OUTER_BOUND ( 'NONE', #47, .T. ) ;
#226 = VERTEX_POINT ( 'NONE', #89 ) ;
#227 = LOCAL_TIME ( 7, 52, 51.00000000000000000, #203 ) ;
#228 = FACE_OUTER_BOUND ( 'NONE', #86, .T. ) ;
#229 = DIRECTION ( 'NONE',  ( -1.631650179813695879E-30, 1.000000000000000000, -4.592686963629977222E-16 ) ) ;
#230 = CARTESIAN_POINT ( 'NONE',  ( 0.0000000000000000000, 0.0000000000000000000, 0.0000000000000000000 ) ) ;
#231 = ORIENTED_EDGE ( 'NONE', *, *, #110, .T. ) ;
#232 = FACE_BOUND ( 'NONE', #167, .T. ) ;
#233 = APPLICATION_CONTEXT ( 'configuration controlled 3d designs of mechanical parts and assemblies' ) ;
#234 = CALENDAR_DATE ( 2021, 26, 11 ) ;
#235 = ORGANIZATION ( 'UNSPECIFIED', 'UNSPECIFIED', '' ) ;
#236 = APPROVAL_ROLE ( '' ) ;
#237 = EDGE_LOOP ( 'NONE', ( #66 ) ) ;
#238 = VERTEX_POINT ( 'NONE', #96 ) ;
#239 = DIRECTION ( 'NONE',  ( 3.491481338843133355E-15, 4.633406852850029477E-16, 1.000000000000000000 ) ) ;
#240 = PERSON_AND_ORGANIZATION_ROLE ( 'design_supplier' ) ;
#241 = AXIS2_PLACEMENT_3D ( 'NONE', #218, #116, #95 ) ;
#242 = CC_DESIGN_PERSON_AND_ORGANIZATION_ASSIGNMENT ( #215, #240, ( #120 ) ) ;
#243 = CC_DESIGN_APPROVAL ( #125, ( #120 ) ) ;
ENDSEC;
END-ISO-10303-21;
