ISO-10303-21;
HEADER;
FILE_DESCRIPTION (( 'STEP AP203' ),
    '1' );
FILE_NAME ('341705.step',
    '2021-11-26T06:52:50',
    ( '' ),
    ( '' ),
    'SwSTEP 2.0',
    'SolidWorks 2019',
    '' );
FILE_SCHEMA (( 'CONFIG_CONTROL_DESIGN' ));
ENDSEC;

DATA;
#1 = CARTESIAN_POINT ( 'NONE',  ( 6.112495949461299121E-14, 8.080982731040465052E-15, 17.50688420258494915 ) ) ;
#2 = FACE_OUTER_BOUND ( 'NONE', #136, .T. ) ;
#3 = DATE_TIME_ROLE ( 'classification_date' ) ;
#4 = LOCAL_TIME ( 7, 52, 50.00000000000000000, #144 ) ;
#5 = CARTESIAN_POINT ( 'NONE',  ( 6.112495949461299121E-14, -1.804335370938433365E-15, 17.50688420258494915 ) ) ;
#6 = FACE_OUTER_BOUND ( 'NONE', #42, .T. ) ;
#7 = FACE_OUTER_BOUND ( 'NONE', #116, .T. ) ;
#8 = ADVANCED_FACE ( 'NONE', ( #100, #235 ), #27, .T. ) ;
#9 = FACE_BOUND ( 'NONE', #195, .T. ) ;
#10 = ORIENTED_EDGE ( 'NONE', *, *, #138, .T. ) ;
#11 = DATE_AND_TIME ( #182, #77 ) ;
#12 = PERSON_AND_ORGANIZATION_ROLE ( 'classification_officer' ) ;
#13 = DIRECTION ( 'NONE',  ( 0.0000000000000000000, 1.000000000000000000, 0.0000000000000000000 ) ) ;
#14 = CC_DESIGN_PERSON_AND_ORGANIZATION_ASSIGNMENT ( #87, #106, ( #112 ) ) ;
#15 = APPROVAL_PERSON_ORGANIZATION ( #185, #184, #107 ) ;
#16 = CC_DESIGN_DATE_AND_TIME_ASSIGNMENT ( #46, #66, ( #70 ) ) ;
#17 = ORIENTED_EDGE ( 'NONE', *, *, #51, .T. ) ;
#18 = DIRECTION ( 'NONE',  ( 0.0000000000000000000, 1.000000000000000000, 0.0000000000000000000 ) ) ;
#19 = DIRECTION ( 'NONE',  ( -3.491481338843133355E-15, 1.030643345817079849E-16, -1.000000000000000000 ) ) ;
#20 = CIRCLE ( 'NONE', #169, 3.279999999999999361 ) ;
#21 = DIRECTION ( 'NONE',  ( 1.611628892865780272E-30, -1.000000000000000000, 4.615888605607661927E-16 ) ) ;
#22 = DIRECTION ( 'NONE',  ( -3.491481338843133355E-15, 1.030643345817079849E-16, -1.000000000000000000 ) ) ;
#23 = EDGE_LOOP ( 'NONE', ( #102 ) ) ;
#24 = EDGE_LOOP ( 'NONE', ( #10 ) ) ;
#25 = APPROVAL_PERSON_ORGANIZATION ( #156, #193, #94 ) ;
#26 = COORDINATED_UNIVERSAL_TIME_OFFSET ( 1, 0, .AHEAD. ) ;
#27 = CONICAL_SURFACE ( 'NONE', #183, 3.049059892324148535, 0.5235987755982979275 ) ;
#28 = CARTESIAN_POINT ( 'NONE',  ( 0.0000000000000000000, 0.0000000000000000000, 0.0000000000000000000 ) ) ;
#29 = APPROVAL_DATE_TIME ( #203, #54 ) ;
#30 = PRODUCT ( '341705', '341705', '', ( #124 ) ) ;
#31 = CARTESIAN_POINT ( 'NONE',  ( 3.526396152231565067E-13, -1.040949779275250653E-14, 101.0000000000000000 ) ) ;
#32 = CARTESIAN_POINT ( 'NONE',  ( 6.842277657836020854E-46, 3.049059892324148535, 0.0000000000000000000 ) ) ;
#33 = DIRECTION ( 'NONE',  ( -1.611628892865779921E-30, 1.000000000000000000, -4.615888605607661927E-16 ) ) ;
#34 = CARTESIAN_POINT ( 'NONE',  ( 1.396592535537253145E-15, 3.279999999999998028, 0.3999999999999999112 ) ) ;
#35 = ORGANIZATION ( 'UNSPECIFIED', 'UNSPECIFIED', '' ) ;
#36 = SECURITY_CLASSIFICATION ( '', '', #104 ) ;
#37 = APPROVAL_DATE_TIME ( #215, #193 ) ;
#38 = ORIENTED_EDGE ( 'NONE', *, *, #138, .F. ) ;
#39 = CARTESIAN_POINT ( 'NONE',  ( 6.281823795492844412E-14, -1.854318916842698141E-15, 17.99185842870425489 ) ) ;
#40 = EDGE_LOOP ( 'NONE', ( #78 ) ) ;
#41 = ORIENTED_EDGE ( 'NONE', *, *, #229, .F. ) ;
#42 = EDGE_LOOP ( 'NONE', ( #163 ) ) ;
#43 = CALENDAR_DATE ( 2021, 26, 11 ) ;
#44 = ADVANCED_FACE ( 'NONE', ( #7, #120 ), #214, .T. ) ;
#45 = AXIS2_PLACEMENT_3D ( 'NONE', #186, #173, #110 ) ;
#46 = DATE_AND_TIME ( #168, #189 ) ;
#47 = AXIS2_PLACEMENT_3D ( 'NONE', #95, #61, #177 ) ;
#48 = CC_DESIGN_APPROVAL ( #184, ( #70 ) ) ;
#49 = PRODUCT_DEFINITION_SHAPE ( 'NONE', 'NONE',  #70 ) ;
#50 = APPROVAL_STATUS ( 'not_yet_approved' ) ;
#51 = EDGE_CURVE ( 'NONE', #73, #73, #20, .T. ) ;
#52 = FACE_OUTER_BOUND ( 'NONE', #63, .T. ) ;
#53 = PLANE ( 'NONE',  #143 ) ;
#54 = APPROVAL ( #125, 'UNSPECIFIED' ) ;
#55 = CONICAL_SURFACE ( 'NONE', #153, 2.999999999999996003, 0.7853981633974453924 ) ;
#56 = CALENDAR_DATE ( 2021, 26, 11 ) ;
#57 = CARTESIAN_POINT ( 'NONE',  ( 4.913953018547822820E-30, 6.496457390295491165E-31, 1.407412081479436197E-15 ) ) ;
#58 = DIRECTION ( 'NONE',  ( 0.0000000000000000000, 1.000000000000000000, 0.0000000000000000000 ) ) ;
#59 = DIRECTION ( 'NONE',  ( 3.598472008923184252E-31, 1.000000000000000000, 1.030643345817079849E-16 ) ) ;
#60 = DIRECTION ( 'NONE',  ( -3.491481338843133355E-15, -4.615888605607661927E-16, -1.000000000000000000 ) ) ;
#61 = DIRECTION ( 'NONE',  ( -3.491481338843133355E-15, -4.615888605607661927E-16, -1.000000000000000000 ) ) ;
#62 = PLANE ( 'NONE',  #83 ) ;
#63 = EDGE_LOOP ( 'NONE', ( #232 ) ) ;
#64 = EDGE_CURVE ( 'NONE', #127, #127, #146, .T. ) ;
#65 = CIRCLE ( 'NONE', #67, 3.049059892324148535 ) ;
#66 = DATE_TIME_ROLE ( 'creation_date' ) ;
#67 = AXIS2_PLACEMENT_3D ( 'NONE', #109, #72, #33 ) ;
#68 = EDGE_CURVE ( 'NONE', #207, #207, #213, .T. ) ;
#69 = APPLICATION_PROTOCOL_DEFINITION ( 'international standard', 'config_control_design', 1994, #206 ) ;
#70 = PRODUCT_DEFINITION ( 'UNKNOWN', '', #112, #197 ) ;
#71 = DIRECTION ( 'NONE',  ( 3.598472008923184252E-31, 1.000000000000000000, 1.030643345817079726E-16 ) ) ;
#72 = DIRECTION ( 'NONE',  ( -3.491481338843133355E-15, -4.615888605607661927E-16, -1.000000000000000000 ) ) ;
#73 = VERTEX_POINT ( 'NONE', #226 ) ;
#74 = AXIS2_PLACEMENT_3D ( 'NONE', #160, #60, #217 ) ;
#75 = ADVANCED_FACE ( 'NONE', ( #97, #216 ), #225, .T. ) ;
#76 = AXIS2_PLACEMENT_3D ( 'NONE', #233, #158, #134 ) ;
#77 = LOCAL_TIME ( 7, 52, 50.00000000000000000, #26 ) ;
#78 = ORIENTED_EDGE ( 'NONE', *, *, #237, .T. ) ;
#79 = PRODUCT_RELATED_PRODUCT_CATEGORY ( 'detail', '', ( #30 ) ) ;
#80 = CARTESIAN_POINT ( 'NONE',  ( 6.112495949461299121E-14, 8.080982731040463475E-15, 17.50688420258494915 ) ) ;
#81 = EDGE_LOOP ( 'NONE', ( #38 ) ) ;
#82 = FACE_OUTER_BOUND ( 'NONE', #198, .T. ) ;
#83 = AXIS2_PLACEMENT_3D ( 'NONE', #234, #180, #59 ) ;
#84 = APPROVAL_DATE_TIME ( #108, #184 ) ;
#85 = ADVANCED_BREP_SHAPE_REPRESENTATION ( '341705', ( #149, #241, #142 ), #176 ) ;
#86 = CC_DESIGN_PERSON_AND_ORGANIZATION_ASSIGNMENT ( #205, #132, ( #70 ) ) ;
#87 = PERSON_AND_ORGANIZATION ( #165, #35 ) ;
#88 = COORDINATED_UNIVERSAL_TIME_OFFSET ( 1, 0, .AHEAD. ) ;
#89 = DIRECTION ( 'NONE',  ( 3.491481338843133355E-15, 4.615888605607661927E-16, 1.000000000000000000 ) ) ;
#90 = CC_DESIGN_APPROVAL ( #193, ( #36 ) ) ;
#91 = ADVANCED_FACE ( 'NONE', ( #2 ), #62, .T. ) ;
#92 = DIRECTION ( 'NONE',  ( -3.598472008923184252E-31, -1.000000000000000000, -1.030643345817079849E-16 ) ) ;
#93 = ADVANCED_FACE ( 'NONE', ( #9, #82 ), #55, .T. ) ;
#94 = APPROVAL_ROLE ( '' ) ;
#95 = CARTESIAN_POINT ( 'NONE',  ( 0.0000000000000000000, 0.0000000000000000000, 0.0000000000000000000 ) ) ;
#96 = CIRCLE ( 'NONE', #211, 3.279999999999989591 ) ;
#97 = FACE_BOUND ( 'NONE', #24, .T. ) ;
#98 = AXIS2_PLACEMENT_3D ( 'NONE', #39, #19, #178 ) ;
#99 = DIRECTION ( 'NONE',  ( 0.0000000000000000000, 1.000000000000000000, 0.0000000000000000000 ) ) ;
#100 = FACE_OUTER_BOUND ( 'NONE', #40, .T. ) ;
#101 = FACE_OUTER_BOUND ( 'NONE', #231, .T. ) ;
#102 = ORIENTED_EDGE ( 'NONE', *, *, #68, .F. ) ;
#103 = ORIENTED_EDGE ( 'NONE', *, *, #51, .F. ) ;
#104 = SECURITY_CLASSIFICATION_LEVEL ( 'unclassified' ) ;
#105 = PERSON_AND_ORGANIZATION_ROLE ( 'design_owner' ) ;
#106 = PERSON_AND_ORGANIZATION_ROLE ( 'creator' ) ;
#107 = APPROVAL_ROLE ( '' ) ;
#108 = DATE_AND_TIME ( #126, #157 ) ;
#109 = CARTESIAN_POINT ( 'NONE',  ( 4.913953018547822820E-30, 6.496457390295491165E-31, 1.407412081479436197E-15 ) ) ;
#110 = DIRECTION ( 'NONE',  ( -1.585369161538274518E-30, 1.000000000000000000, -4.627692199633253303E-16 ) ) ;
#111 = CIRCLE ( 'NONE', #45, 3.279999999999998028 ) ;
#112 = PRODUCT_DEFINITION_FORMATION_WITH_SPECIFIED_SOURCE ( 'ANY', '', #30, .NOT_KNOWN. ) ;
#113 = EDGE_CURVE ( 'NONE', #242, #242, #96, .T. ) ;
#114 = AXIS2_PLACEMENT_3D ( 'NONE', #5, #159, #13 ) ;
#115 = SHAPE_DEFINITION_REPRESENTATION ( #49, #85 ) ;
#116 = EDGE_LOOP ( 'NONE', ( #179 ) ) ;
#117 = DIRECTION ( 'NONE',  ( 3.491481338843133355E-15, 4.615888605607661927E-16, 1.000000000000000000 ) ) ;
#118 = EDGE_LOOP ( 'NONE', ( #161 ) ) ;
#119 = PLANE ( 'NONE',  #74 ) ;
#120 = FACE_OUTER_BOUND ( 'NONE', #118, .T. ) ;
#121 = PERSON_AND_ORGANIZATION_ROLE ( 'design_supplier' ) ;
#122 = CC_DESIGN_SECURITY_CLASSIFICATION ( #36, ( #112 ) ) ;
#123 = ADVANCED_FACE ( 'NONE', ( #101 ), #119, .T. ) ;
#124 = MECHANICAL_CONTEXT ( 'NONE', #206, 'mechanical' ) ;
#125 = APPROVAL_STATUS ( 'not_yet_approved' ) ;
#126 = CALENDAR_DATE ( 2021, 26, 11 ) ;
#127 = VERTEX_POINT ( 'NONE', #188 ) ;
#128 = CARTESIAN_POINT ( 'NONE',  ( 6.281823795492844412E-14, 2.999999999999988010, 17.99185842870425489 ) ) ;
#129 = CARTESIAN_POINT ( 'NONE',  ( 6.112495949461299121E-14, 3.279999999999997584, 17.50688420258494915 ) ) ;
#130 =( LENGTH_UNIT ( ) NAMED_UNIT ( * ) SI_UNIT ( .MILLI., .METRE. ) );
#131 = AXIS2_PLACEMENT_3D ( 'NONE', #196, #22, #71 ) ;
#132 = PERSON_AND_ORGANIZATION_ROLE ( 'creator' ) ;
#133 = CLOSED_SHELL ( 'NONE', ( #239, #44, #8, #123 ) ) ;
#134 = DIRECTION ( 'NONE',  ( 0.0000000000000000000, 1.000000000000000000, 0.0000000000000000000 ) ) ;
#135 = DIRECTION ( 'NONE',  ( -3.491481338843133355E-15, -4.615888605607661927E-16, -1.000000000000000000 ) ) ;
#136 = EDGE_LOOP ( 'NONE', ( #17 ) ) ;
#137 = FACE_OUTER_BOUND ( 'NONE', #81, .T. ) ;
#138 = EDGE_CURVE ( 'NONE', #243, #243, #210, .T. ) ;
#139 = UNCERTAINTY_MEASURE_WITH_UNIT (LENGTH_MEASURE( 1.000000000000000082E-05 ), #130, 'distance_accuracy_value', 'NONE');
#140 = CARTESIAN_POINT ( 'NONE',  ( 6.112495949461299121E-14, -1.804335370938433365E-15, 17.50688420258494915 ) ) ;
#141 = DIRECTION ( 'NONE',  ( -3.491481338843133355E-15, 1.030643345817079849E-16, -1.000000000000000000 ) ) ;
#142 = AXIS2_PLACEMENT_3D ( 'NONE', #28, #167, #170 ) ;
#143 = AXIS2_PLACEMENT_3D ( 'NONE', #31, #145, #92 ) ;
#144 = COORDINATED_UNIVERSAL_TIME_OFFSET ( 1, 0, .AHEAD. ) ;
#145 = DIRECTION ( 'NONE',  ( 3.491481338843133355E-15, -1.030643345817079849E-16, 1.000000000000000000 ) ) ;
#146 = CIRCLE ( 'NONE', #194, 2.999999999999996003 ) ;
#147 = PLANE ( 'NONE',  #222 ) ;
#148 = CC_DESIGN_DATE_AND_TIME_ASSIGNMENT ( #11, #3, ( #36 ) ) ;
#149 = MANIFOLD_SOLID_BREP ( 'Corps-Déplacer/Copier1[1]', #154 ) ;
#150 = COORDINATED_UNIVERSAL_TIME_OFFSET ( 1, 0, .AHEAD. ) ;
#151 = APPROVAL_STATUS ( 'not_yet_approved' ) ;
#152 = EDGE_LOOP ( 'NONE', ( #103 ) ) ;
#153 = AXIS2_PLACEMENT_3D ( 'NONE', #162, #236, #192 ) ;
#154 = CLOSED_SHELL ( 'NONE', ( #204, #93, #166, #75, #91 ) ) ;
#155 = CC_DESIGN_PERSON_AND_ORGANIZATION_ASSIGNMENT ( #199, #12, ( #36 ) ) ;
#156 = PERSON_AND_ORGANIZATION ( #165, #35 ) ;
#157 = LOCAL_TIME ( 7, 52, 50.00000000000000000, #88 ) ;
#158 = DIRECTION ( 'NONE',  ( -3.491481338843133355E-15, 1.030643345817079849E-16, -1.000000000000000000 ) ) ;
#159 = DIRECTION ( 'NONE',  ( -3.491481338843133355E-15, 1.030643345817079849E-16, -1.000000000000000000 ) ) ;
#160 = CARTESIAN_POINT ( 'NONE',  ( -2.456976509273911410E-30, 3.049059892324148535, -7.037060407397180986E-16 ) ) ;
#161 = ORIENTED_EDGE ( 'NONE', *, *, #237, .F. ) ;
#162 = CARTESIAN_POINT ( 'NONE',  ( 3.505447264198505636E-13, -1.034765919200348261E-14, 100.4000000000000057 ) ) ;
#163 = ORIENTED_EDGE ( 'NONE', *, *, #64, .T. ) ;
#164 = APPROVAL_ROLE ( '' ) ;
#165 = PERSON ( 'UNSPECIFIED', 'UNSPECIFIED', 'UNSPECIFIED', ('UNSPECIFIED'), ('UNSPECIFIED'), ('UNSPECIFIED') ) ;
#166 = ADVANCED_FACE ( 'NONE', ( #6, #137 ), #218, .T. ) ;
#167 = DIRECTION ( 'NONE',  ( 0.0000000000000000000, 0.0000000000000000000, 1.000000000000000000 ) ) ;
#168 = CALENDAR_DATE ( 2021, 26, 11 ) ;
#169 = AXIS2_PLACEMENT_3D ( 'NONE', #140, #191, #58 ) ;
#170 = DIRECTION ( 'NONE',  ( 1.000000000000000000, 0.0000000000000000000, 0.0000000000000000000 ) ) ;
#171 = CARTESIAN_POINT ( 'NONE',  ( 3.526396152231565067E-13, 2.399999999999985700, 101.0000000000000000 ) ) ;
#172 =( NAMED_UNIT ( * ) SI_UNIT ( $, .STERADIAN. ) SOLID_ANGLE_UNIT ( ) );
#173 = DIRECTION ( 'NONE',  ( -3.491481338843133355E-15, -4.615888605607661927E-16, -1.000000000000000000 ) ) ;
#174 = CC_DESIGN_PERSON_AND_ORGANIZATION_ASSIGNMENT ( #202, #105, ( #30 ) ) ;
#175 = ORIENTED_EDGE ( 'NONE', *, *, #64, .F. ) ;
#176 =( GEOMETRIC_REPRESENTATION_CONTEXT ( 3 ) GLOBAL_UNCERTAINTY_ASSIGNED_CONTEXT ( ( #139 ) ) GLOBAL_UNIT_ASSIGNED_CONTEXT ( ( #130, #227, #172 ) ) REPRESENTATION_CONTEXT ( 'NONE', 'WORKASPACE' ) );
#177 = DIRECTION ( 'NONE',  ( -1.611628892865780272E-30, 1.000000000000000000, -4.615888605607660941E-16 ) ) ;
#178 = DIRECTION ( 'NONE',  ( 0.0000000000000000000, 1.000000000000000000, 0.0000000000000000000 ) ) ;
#179 = ORIENTED_EDGE ( 'NONE', *, *, #113, .T. ) ;
#180 = DIRECTION ( 'NONE',  ( -3.491481338843133355E-15, 1.030643345817079849E-16, -1.000000000000000000 ) ) ;
#181 = EDGE_LOOP ( 'NONE', ( #41 ) ) ;
#182 = CALENDAR_DATE ( 2021, 26, 11 ) ;
#183 = AXIS2_PLACEMENT_3D ( 'NONE', #57, #117, #21 ) ;
#184 = APPROVAL ( #50, 'UNSPECIFIED' ) ;
#185 = PERSON_AND_ORGANIZATION ( #165, #35 ) ;
#186 = CARTESIAN_POINT ( 'NONE',  ( 1.396592535537258272E-15, 1.846355442243071230E-16, 0.4000000000000014100 ) ) ;
#187 = APPROVAL_PERSON_ORGANIZATION ( #238, #54, #164 ) ;
#188 = CARTESIAN_POINT ( 'NONE',  ( 3.505447264198505636E-13, 2.999999999999985789, 100.4000000000000057 ) ) ;
#189 = LOCAL_TIME ( 7, 52, 50.00000000000000000, #150 ) ;
#190 = ORIENTED_EDGE ( 'NONE', *, *, #68, .T. ) ;
#191 = DIRECTION ( 'NONE',  ( -3.491481338843133355E-15, 1.030643345817079849E-16, -1.000000000000000000 ) ) ;
#192 = DIRECTION ( 'NONE',  ( 0.0000000000000000000, 1.000000000000000000, 0.0000000000000000000 ) ) ;
#193 = APPROVAL ( #151, 'UNSPECIFIED' ) ;
#194 = AXIS2_PLACEMENT_3D ( 'NONE', #219, #141, #18 ) ;
#195 = EDGE_LOOP ( 'NONE', ( #190 ) ) ;
#196 = CARTESIAN_POINT ( 'NONE',  ( 0.0000000000000000000, 0.0000000000000000000, 0.0000000000000000000 ) ) ;
#197 = DESIGN_CONTEXT ( 'detailed design', #212, 'design' ) ;
#198 = EDGE_LOOP ( 'NONE', ( #175 ) ) ;
#199 = PERSON_AND_ORGANIZATION ( #165, #35 ) ;
#200 = LOCAL_TIME ( 7, 52, 50.00000000000000000, #230 ) ;
#201 = CC_DESIGN_PERSON_AND_ORGANIZATION_ASSIGNMENT ( #221, #121, ( #112 ) ) ;
#202 = PERSON_AND_ORGANIZATION ( #165, #35 ) ;
#203 = DATE_AND_TIME ( #43, #4 ) ;
#204 = ADVANCED_FACE ( 'NONE', ( #224 ), #53, .T. ) ;
#205 = PERSON_AND_ORGANIZATION ( #165, #35 ) ;
#206 = APPLICATION_CONTEXT ( 'configuration controlled 3d designs of mechanical parts and assemblies' ) ;
#207 = VERTEX_POINT ( 'NONE', #171 ) ;
#208 = VERTEX_POINT ( 'NONE', #32 ) ;
#209 = DIRECTION ( 'NONE',  ( 1.611628892865780272E-30, -1.000000000000000000, 4.615888605607661927E-16 ) ) ;
#210 = CIRCLE ( 'NONE', #98, 2.999999999999989786 ) ;
#211 = AXIS2_PLACEMENT_3D ( 'NONE', #80, #135, #99 ) ;
#212 = APPLICATION_CONTEXT ( 'configuration controlled 3d designs of mechanical parts and assemblies' ) ;
#213 = CIRCLE ( 'NONE', #76, 2.399999999999996358 ) ;
#214 = CYLINDRICAL_SURFACE ( 'NONE', #47, 3.279999999999994031 ) ;
#215 = DATE_AND_TIME ( #56, #200 ) ;
#216 = FACE_OUTER_BOUND ( 'NONE', #152, .T. ) ;
#217 = DIRECTION ( 'NONE',  ( -1.611628892865780272E-30, 1.000000000000000000, -4.615888605607661927E-16 ) ) ;
#218 = CYLINDRICAL_SURFACE ( 'NONE', #131, 2.999999999999993339 ) ;
#219 = CARTESIAN_POINT ( 'NONE',  ( 3.505447264198505636E-13, -1.034765919200348261E-14, 100.4000000000000057 ) ) ;
#220 = ORIENTED_EDGE ( 'NONE', *, *, #229, .T. ) ;
#221 = PERSON_AND_ORGANIZATION ( #165, #35 ) ;
#222 = AXIS2_PLACEMENT_3D ( 'NONE', #1, #89, #209 ) ;
#223 = APPLICATION_PROTOCOL_DEFINITION ( 'international standard', 'config_control_design', 1994, #212 ) ;
#224 = FACE_OUTER_BOUND ( 'NONE', #23, .T. ) ;
#225 = CONICAL_SURFACE ( 'NONE', #114, 3.279999999999999361, 0.5235987755982954850 ) ;
#226 = CARTESIAN_POINT ( 'NONE',  ( 6.112495949461299121E-14, 3.279999999999997584, 17.50688420258494915 ) ) ;
#227 =( NAMED_UNIT ( * ) PLANE_ANGLE_UNIT ( ) SI_UNIT ( $, .RADIAN. ) );
#228 = VERTEX_POINT ( 'NONE', #34 ) ;
#229 = EDGE_CURVE ( 'NONE', #208, #208, #65, .T. ) ;
#230 = COORDINATED_UNIVERSAL_TIME_OFFSET ( 1, 0, .AHEAD. ) ;
#231 = EDGE_LOOP ( 'NONE', ( #220 ) ) ;
#232 = ORIENTED_EDGE ( 'NONE', *, *, #113, .F. ) ;
#233 = CARTESIAN_POINT ( 'NONE',  ( 3.526396152231565067E-13, -1.040949779275250653E-14, 101.0000000000000000 ) ) ;
#234 = CARTESIAN_POINT ( 'NONE',  ( 6.112495949461299121E-14, 3.279999999999997584, 17.50688420258494915 ) ) ;
#235 = FACE_BOUND ( 'NONE', #181, .T. ) ;
#236 = DIRECTION ( 'NONE',  ( -3.491481338843133355E-15, 1.030643345817079849E-16, -1.000000000000000000 ) ) ;
#237 = EDGE_CURVE ( 'NONE', #228, #228, #111, .T. ) ;
#238 = PERSON_AND_ORGANIZATION ( #165, #35 ) ;
#239 = ADVANCED_FACE ( 'NONE', ( #52 ), #147, .T. ) ;
#240 = CC_DESIGN_APPROVAL ( #54, ( #112 ) ) ;
#241 = MANIFOLD_SOLID_BREP ( 'Corps-Déplacer/Copier1[2]', #133 ) ;
#242 = VERTEX_POINT ( 'NONE', #129 ) ;
#243 = VERTEX_POINT ( 'NONE', #128 ) ;
ENDSEC;
END-ISO-10303-21;
