ISO-10303-21;
HEADER;
FILE_DESCRIPTION (( 'STEP AP203' ),
    '1' );
FILE_NAME ('341702.step',
    '2021-11-26T06:52:50',
    ( '' ),
    ( '' ),
    'SwSTEP 2.0',
    'SolidWorks 2019',
    '' );
FILE_SCHEMA (( 'CONFIG_CONTROL_DESIGN' ));
ENDSEC;

DATA;
#1 = EDGE_LOOP ( 'NONE', ( #194 ) ) ;
#2 = ADVANCED_FACE ( 'NONE', ( #37 ), #52, .T. ) ;
#3 = CIRCLE ( 'NONE', #162, 2.999999999999989786 ) ;
#4 = FACE_OUTER_BOUND ( 'NONE', #58, .T. ) ;
#5 = AXIS2_PLACEMENT_3D ( 'NONE', #98, #79, #40 ) ;
#6 = UNCERTAINTY_MEASURE_WITH_UNIT (LENGTH_MEASURE( 1.000000000000000082E-05 ), #8, 'distance_accuracy_value', 'NONE');
#7 = ORIENTED_EDGE ( 'NONE', *, *, #28, .T. ) ;
#8 =( LENGTH_UNIT ( ) NAMED_UNIT ( * ) SI_UNIT ( .MILLI., .METRE. ) );
#9 = CONICAL_SURFACE ( 'NONE', #17, 3.264999999999999680, 0.5235987755982962621 ) ;
#10 = FACE_OUTER_BOUND ( 'NONE', #212, .T. ) ;
#11 = EDGE_CURVE ( 'NONE', #192, #192, #3, .T. ) ;
#12 = APPROVAL_STATUS ( 'not_yet_approved' ) ;
#13 = DIRECTION ( 'NONE',  ( -3.491481338843133355E-15, -4.605419191824007289E-16, -1.000000000000000000 ) ) ;
#14 = PERSON_AND_ORGANIZATION ( #77, #193 ) ;
#15 = PRODUCT_DEFINITION_SHAPE ( 'NONE', 'NONE',  #226 ) ;
#16 = PERSON_AND_ORGANIZATION_ROLE ( 'design_owner' ) ;
#17 = AXIS2_PLACEMENT_3D ( 'NONE', #196, #64, #149 ) ;
#18 = COORDINATED_UNIVERSAL_TIME_OFFSET ( 1, 0, .AHEAD. ) ;
#19 = ADVANCED_FACE ( 'NONE', ( #51 ), #181, .T. ) ;
#20 = CALENDAR_DATE ( 2021, 26, 11 ) ;
#21 = LOCAL_TIME ( 7, 52, 50.00000000000000000, #18 ) ;
#22 = PLANE ( 'NONE',  #5 ) ;
#23 = AXIS2_PLACEMENT_3D ( 'NONE', #44, #123, #25 ) ;
#24 = ORIENTED_EDGE ( 'NONE', *, *, #28, .F. ) ;
#25 = DIRECTION ( 'NONE',  ( 0.0000000000000000000, 1.000000000000000000, 0.0000000000000000000 ) ) ;
#26 = CARTESIAN_POINT ( 'NONE',  ( 6.121567084070132265E-14, 3.264999999999997904, 17.53286496469848288 ) ) ;
#27 = CARTESIAN_POINT ( 'NONE',  ( 3.526396152231565067E-13, -1.040949779275250653E-14, 101.0000000000000000 ) ) ;
#28 = EDGE_CURVE ( 'NONE', #119, #119, #82, .T. ) ;
#29 = FACE_OUTER_BOUND ( 'NONE', #70, .T. ) ;
#30 = APPROVAL_DATE_TIME ( #201, #144 ) ;
#31 = APPROVAL_STATUS ( 'not_yet_approved' ) ;
#32 = CARTESIAN_POINT ( 'NONE',  ( 6.842277657836020854E-46, 3.034059892324148411, 0.0000000000000000000 ) ) ;
#33 = CC_DESIGN_PERSON_AND_ORGANIZATION_ASSIGNMENT ( #48, #16, ( #107 ) ) ;
#34 = COORDINATED_UNIVERSAL_TIME_OFFSET ( 1, 0, .AHEAD. ) ;
#35 = EDGE_LOOP ( 'NONE', ( #142 ) ) ;
#36 = VERTEX_POINT ( 'NONE', #210 ) ;
#37 = FACE_OUTER_BOUND ( 'NONE', #161, .T. ) ;
#38 = CARTESIAN_POINT ( 'NONE',  ( 4.878687954575873318E-30, 6.435206422832841189E-31, 1.397311765725311550E-15 ) ) ;
#39 = LOCAL_TIME ( 7, 52, 50.00000000000000000, #34 ) ;
#40 = DIRECTION ( 'NONE',  ( -1.607973516580354510E-30, 1.000000000000000000, -4.605419191824007289E-16 ) ) ;
#41 = DIRECTION ( 'NONE',  ( 3.598472008923184252E-31, 1.000000000000000000, 1.030643345817079726E-16 ) ) ;
#42 = DIRECTION ( 'NONE',  ( -3.491481338843133355E-15, -4.605419191824007289E-16, -1.000000000000000000 ) ) ;
#43 = EDGE_CURVE ( 'NONE', #57, #57, #145, .T. ) ;
#44 = CARTESIAN_POINT ( 'NONE',  ( 3.505447264198505636E-13, -1.034765919200348261E-14, 100.4000000000000057 ) ) ;
#45 = DIRECTION ( 'NONE',  ( 1.000000000000000000, 0.0000000000000000000, 0.0000000000000000000 ) ) ;
#46 = CC_DESIGN_DATE_AND_TIME_ASSIGNMENT ( #146, #84, ( #226 ) ) ;
#47 = DIRECTION ( 'NONE',  ( -3.491481338843133355E-15, 1.030643345817079849E-16, -1.000000000000000000 ) ) ;
#48 = PERSON_AND_ORGANIZATION ( #77, #193 ) ;
#49 = CARTESIAN_POINT ( 'NONE',  ( 6.121567084070132265E-14, 3.264999999999997904, 17.53286496469848288 ) ) ;
#50 = CALENDAR_DATE ( 2021, 26, 11 ) ;
#51 = FACE_OUTER_BOUND ( 'NONE', #224, .T. ) ;
#52 = PLANE ( 'NONE',  #99 ) ;
#53 = AXIS2_PLACEMENT_3D ( 'NONE', #231, #42, #141 ) ;
#54 = FACE_OUTER_BOUND ( 'NONE', #233, .T. ) ;
#55 = PRODUCT_DEFINITION_FORMATION_WITH_SPECIFIED_SOURCE ( 'ANY', '', #107, .NOT_KNOWN. ) ;
#56 = CARTESIAN_POINT ( 'NONE',  ( 0.0000000000000000000, 0.0000000000000000000, 0.0000000000000000000 ) ) ;
#57 = VERTEX_POINT ( 'NONE', #121 ) ;
#58 = EDGE_LOOP ( 'NONE', ( #91 ) ) ;
#59 = EDGE_LOOP ( 'NONE', ( #151 ) ) ;
#60 = ORIENTED_EDGE ( 'NONE', *, *, #230, .F. ) ;
#61 = AXIS2_PLACEMENT_3D ( 'NONE', #222, #217, #45 ) ;
#62 = CALENDAR_DATE ( 2021, 26, 11 ) ;
#63 = COORDINATED_UNIVERSAL_TIME_OFFSET ( 1, 0, .AHEAD. ) ;
#64 = DIRECTION ( 'NONE',  ( -3.491481338843133355E-15, 1.030643345817079849E-16, -1.000000000000000000 ) ) ;
#65 = CONICAL_SURFACE ( 'NONE', #159, 3.034059892324148411, 0.5235987755982979275 ) ;
#66 = PERSON_AND_ORGANIZATION_ROLE ( 'classification_officer' ) ;
#67 = DIRECTION ( 'NONE',  ( -3.491481338843133355E-15, 1.030643345817079849E-16, -1.000000000000000000 ) ) ;
#68 = APPROVAL_ROLE ( '' ) ;
#69 = MANIFOLD_SOLID_BREP ( 'Corps-Déplacer/Copier1[1]', #185 ) ;
#70 = EDGE_LOOP ( 'NONE', ( #24 ) ) ;
#71 = CC_DESIGN_SECURITY_CLASSIFICATION ( #96, ( #55 ) ) ;
#72 = DIRECTION ( 'NONE',  ( 3.491481338843133355E-15, 4.605419191824007289E-16, 1.000000000000000000 ) ) ;
#73 = APPROVAL_DATE_TIME ( #116, #154 ) ;
#74 = ADVANCED_FACE ( 'NONE', ( #179, #165 ), #241, .T. ) ;
#75 = ORIENTED_EDGE ( 'NONE', *, *, #134, .T. ) ;
#76 = ADVANCED_FACE ( 'NONE', ( #88 ), #221, .T. ) ;
#77 = PERSON ( 'UNSPECIFIED', 'UNSPECIFIED', 'UNSPECIFIED', ('UNSPECIFIED'), ('UNSPECIFIED'), ('UNSPECIFIED') ) ;
#78 = CARTESIAN_POINT ( 'NONE',  ( 1.396592535537253145E-15, 3.264999999999998348, 0.3999999999999999112 ) ) ;
#79 = DIRECTION ( 'NONE',  ( -3.491481338843133355E-15, -4.605419191824007289E-16, -1.000000000000000000 ) ) ;
#80 = ORIENTED_EDGE ( 'NONE', *, *, #87, .F. ) ;
#81 = DIRECTION ( 'NONE',  ( -3.491481338843133355E-15, 1.030643345817079849E-16, -1.000000000000000000 ) ) ;
#82 = CIRCLE ( 'NONE', #89, 3.264999999999998348 ) ;
#83 =( NAMED_UNIT ( * ) PLANE_ANGLE_UNIT ( ) SI_UNIT ( $, .RADIAN. ) );
#84 = DATE_TIME_ROLE ( 'creation_date' ) ;
#85 = FACE_BOUND ( 'NONE', #1, .T. ) ;
#86 = APPLICATION_PROTOCOL_DEFINITION ( 'international standard', 'config_control_design', 1994, #171 ) ;
#87 = EDGE_CURVE ( 'NONE', #228, #228, #225, .T. ) ;
#88 = FACE_OUTER_BOUND ( 'NONE', #59, .T. ) ;
#89 = AXIS2_PLACEMENT_3D ( 'NONE', #169, #109, #205 ) ;
#90 = DATE_TIME_ROLE ( 'classification_date' ) ;
#91 = ORIENTED_EDGE ( 'NONE', *, *, #230, .T. ) ;
#92 = ADVANCED_FACE ( 'NONE', ( #127, #29 ), #216, .T. ) ;
#93 = CIRCLE ( 'NONE', #53, 3.034059892324148411 ) ;
#94 = DIRECTION ( 'NONE',  ( 0.0000000000000000000, 1.000000000000000000, 0.0000000000000000000 ) ) ;
#95 = ADVANCED_FACE ( 'NONE', ( #85, #164 ), #9, .T. ) ;
#96 = SECURITY_CLASSIFICATION ( '', '', #130 ) ;
#97 = CYLINDRICAL_SURFACE ( 'NONE', #117, 2.999999999999993339 ) ;
#98 = CARTESIAN_POINT ( 'NONE',  ( -2.439343977287936659E-30, 3.034059892324148411, -6.986558828626557752E-16 ) ) ;
#99 = AXIS2_PLACEMENT_3D ( 'NONE', #170, #72, #152 ) ;
#100 = CARTESIAN_POINT ( 'NONE',  ( 3.526396152231565067E-13, 2.399999999999985700, 101.0000000000000000 ) ) ;
#101 = EDGE_LOOP ( 'NONE', ( #60 ) ) ;
#102 = AXIS2_PLACEMENT_3D ( 'NONE', #27, #199, #126 ) ;
#103 = CARTESIAN_POINT ( 'NONE',  ( 6.121567084070132265E-14, 8.074619279608113209E-15, 17.53286496469848288 ) ) ;
#104 = AXIS2_PLACEMENT_3D ( 'NONE', #106, #13, #166 ) ;
#105 = DIRECTION ( 'NONE',  ( 0.0000000000000000000, 1.000000000000000000, 0.0000000000000000000 ) ) ;
#106 = CARTESIAN_POINT ( 'NONE',  ( 0.0000000000000000000, 0.0000000000000000000, 0.0000000000000000000 ) ) ;
#107 = PRODUCT ( '341702', '341702', '', ( #133 ) ) ;
#108 = PERSON_AND_ORGANIZATION ( #77, #193 ) ;
#109 = DIRECTION ( 'NONE',  ( -3.491481338843133355E-15, -4.605419191824007289E-16, -1.000000000000000000 ) ) ;
#110 = APPROVAL_ROLE ( '' ) ;
#111 = AXIS2_PLACEMENT_3D ( 'NONE', #183, #81, #239 ) ;
#112 = CALENDAR_DATE ( 2021, 26, 11 ) ;
#113 = CARTESIAN_POINT ( 'NONE',  ( 6.121567084070132265E-14, -1.807013060897589991E-15, 17.53286496469848288 ) ) ;
#114 = DATE_AND_TIME ( #112, #39 ) ;
#115 = CARTESIAN_POINT ( 'NONE',  ( 6.281823795492844412E-14, -1.854318916842698141E-15, 17.99185842870425489 ) ) ;
#116 = DATE_AND_TIME ( #20, #122 ) ;
#117 = AXIS2_PLACEMENT_3D ( 'NONE', #56, #157, #41 ) ;
#118 = DIRECTION ( 'NONE',  ( 3.491481338843133355E-15, 4.605419191824007289E-16, 1.000000000000000000 ) ) ;
#119 = VERTEX_POINT ( 'NONE', #78 ) ;
#120 = EDGE_CURVE ( 'NONE', #36, #36, #155, .T. ) ;
#121 = CARTESIAN_POINT ( 'NONE',  ( 6.121567084070132265E-14, 3.264999999999997904, 17.53286496469848288 ) ) ;
#122 = LOCAL_TIME ( 7, 52, 50.00000000000000000, #138 ) ;
#123 = DIRECTION ( 'NONE',  ( -3.491481338843133355E-15, 1.030643345817079849E-16, -1.000000000000000000 ) ) ;
#124 = PERSON_AND_ORGANIZATION ( #77, #193 ) ;
#125 = CC_DESIGN_PERSON_AND_ORGANIZATION_ASSIGNMENT ( #240, #66, ( #96 ) ) ;
#126 = DIRECTION ( 'NONE',  ( -3.598472008923184252E-31, -1.000000000000000000, -1.030643345817079849E-16 ) ) ;
#127 = FACE_OUTER_BOUND ( 'NONE', #143, .T. ) ;
#128 = CALENDAR_DATE ( 2021, 26, 11 ) ;
#129 = DATE_AND_TIME ( #50, #21 ) ;
#130 = SECURITY_CLASSIFICATION_LEVEL ( 'unclassified' ) ;
#131 = DIRECTION ( 'NONE',  ( -3.491481338843133355E-15, 1.030643345817079849E-16, -1.000000000000000000 ) ) ;
#132 = APPROVAL_PERSON_ORGANIZATION ( #108, #187, #68 ) ;
#133 = MECHANICAL_CONTEXT ( 'NONE', #140, 'mechanical' ) ;
#134 = EDGE_CURVE ( 'NONE', #160, #160, #168, .T. ) ;
#135 = ORIENTED_EDGE ( 'NONE', *, *, #120, .T. ) ;
#136 = SHAPE_DEFINITION_REPRESENTATION ( #15, #158 ) ;
#137 = AXIS2_PLACEMENT_3D ( 'NONE', #103, #237, #177 ) ;
#138 = COORDINATED_UNIVERSAL_TIME_OFFSET ( 1, 0, .AHEAD. ) ;
#139 = DIRECTION ( 'NONE',  ( 3.598472008923184252E-31, 1.000000000000000000, 1.030643345817079849E-16 ) ) ;
#140 = APPLICATION_CONTEXT ( 'configuration controlled 3d designs of mechanical parts and assemblies' ) ;
#141 = DIRECTION ( 'NONE',  ( -1.607973516580354510E-30, 1.000000000000000000, -4.605419191824007289E-16 ) ) ;
#142 = ORIENTED_EDGE ( 'NONE', *, *, #43, .F. ) ;
#143 = EDGE_LOOP ( 'NONE', ( #75 ) ) ;
#144 = APPROVAL ( #12, 'UNSPECIFIED' ) ;
#145 = CIRCLE ( 'NONE', #235, 3.264999999999999680 ) ;
#146 = DATE_AND_TIME ( #62, #189 ) ;
#147 = COORDINATED_UNIVERSAL_TIME_OFFSET ( 1, 0, .AHEAD. ) ;
#148 = APPROVAL_PERSON_ORGANIZATION ( #203, #154, #110 ) ;
#149 = DIRECTION ( 'NONE',  ( 0.0000000000000000000, 1.000000000000000000, 0.0000000000000000000 ) ) ;
#150 = APPROVAL_ROLE ( '' ) ;
#151 = ORIENTED_EDGE ( 'NONE', *, *, #43, .T. ) ;
#152 = DIRECTION ( 'NONE',  ( 1.607973516580354510E-30, -1.000000000000000000, 4.605419191824007289E-16 ) ) ;
#153 = MANIFOLD_SOLID_BREP ( 'Corps-Déplacer/Copier1[2]', #218 ) ;
#154 = APPROVAL ( #31, 'UNSPECIFIED' ) ;
#155 = CIRCLE ( 'NONE', #23, 2.999999999999996003 ) ;
#156 = CARTESIAN_POINT ( 'NONE',  ( 3.526396152231565067E-13, -1.040949779275250653E-14, 101.0000000000000000 ) ) ;
#157 = DIRECTION ( 'NONE',  ( -3.491481338843133355E-15, 1.030643345817079849E-16, -1.000000000000000000 ) ) ;
#158 = ADVANCED_BREP_SHAPE_REPRESENTATION ( '341702', ( #69, #153, #61 ), #173 ) ;
#159 = AXIS2_PLACEMENT_3D ( 'NONE', #38, #118, #191 ) ;
#160 = VERTEX_POINT ( 'NONE', #26 ) ;
#161 = EDGE_LOOP ( 'NONE', ( #184 ) ) ;
#162 = AXIS2_PLACEMENT_3D ( 'NONE', #115, #186, #94 ) ;
#163 = PERSON_AND_ORGANIZATION ( #77, #193 ) ;
#164 = FACE_OUTER_BOUND ( 'NONE', #35, .T. ) ;
#165 = FACE_OUTER_BOUND ( 'NONE', #206, .T. ) ;
#166 = DIRECTION ( 'NONE',  ( -1.607973516580354510E-30, 1.000000000000000000, -4.605419191824007289E-16 ) ) ;
#167 = PERSON_AND_ORGANIZATION_ROLE ( 'design_supplier' ) ;
#168 = CIRCLE ( 'NONE', #137, 3.264999999999989910 ) ;
#169 = CARTESIAN_POINT ( 'NONE',  ( 1.396592535537258272E-15, 1.842167676729609621E-16, 0.4000000000000014100 ) ) ;
#170 = CARTESIAN_POINT ( 'NONE',  ( 6.121567084070132265E-14, 8.074619279608114787E-15, 17.53286496469848288 ) ) ;
#171 = APPLICATION_CONTEXT ( 'configuration controlled 3d designs of mechanical parts and assemblies' ) ;
#172 = EDGE_LOOP ( 'NONE', ( #213 ) ) ;
#173 =( GEOMETRIC_REPRESENTATION_CONTEXT ( 3 ) GLOBAL_UNCERTAINTY_ASSIGNED_CONTEXT ( ( #6 ) ) GLOBAL_UNIT_ASSIGNED_CONTEXT ( ( #8, #83, #204 ) ) REPRESENTATION_CONTEXT ( 'NONE', 'WORKASPACE' ) );
#174 = EDGE_LOOP ( 'NONE', ( #7 ) ) ;
#175 = AXIS2_PLACEMENT_3D ( 'NONE', #49, #67, #139 ) ;
#176 = ADVANCED_FACE ( 'NONE', ( #10, #54 ), #97, .T. ) ;
#177 = DIRECTION ( 'NONE',  ( 0.0000000000000000000, 1.000000000000000000, 0.0000000000000000000 ) ) ;
#178 = PERSON_AND_ORGANIZATION_ROLE ( 'creator' ) ;
#179 = FACE_BOUND ( 'NONE', #172, .T. ) ;
#180 = CC_DESIGN_PERSON_AND_ORGANIZATION_ASSIGNMENT ( #163, #236, ( #226 ) ) ;
#181 = PLANE ( 'NONE',  #102 ) ;
#182 = CC_DESIGN_APPROVAL ( #144, ( #55 ) ) ;
#183 = CARTESIAN_POINT ( 'NONE',  ( 3.505447264198505636E-13, -1.034765919200348261E-14, 100.4000000000000057 ) ) ;
#184 = ORIENTED_EDGE ( 'NONE', *, *, #134, .F. ) ;
#185 = CLOSED_SHELL ( 'NONE', ( #19, #74, #176, #95, #76 ) ) ;
#186 = DIRECTION ( 'NONE',  ( -3.491481338843133355E-15, 1.030643345817079849E-16, -1.000000000000000000 ) ) ;
#187 = APPROVAL ( #197, 'UNSPECIFIED' ) ;
#188 = ADVANCED_FACE ( 'NONE', ( #190, #211 ), #65, .T. ) ;
#189 = LOCAL_TIME ( 7, 52, 50.00000000000000000, #63 ) ;
#190 = FACE_OUTER_BOUND ( 'NONE', #174, .T. ) ;
#191 = DIRECTION ( 'NONE',  ( 1.607973516580354160E-30, -1.000000000000000000, 4.605419191824007289E-16 ) ) ;
#192 = VERTEX_POINT ( 'NONE', #232 ) ;
#193 = ORGANIZATION ( 'UNSPECIFIED', 'UNSPECIFIED', '' ) ;
#194 = ORIENTED_EDGE ( 'NONE', *, *, #11, .T. ) ;
#195 = PRODUCT_RELATED_PRODUCT_CATEGORY ( 'detail', '', ( #107 ) ) ;
#196 = CARTESIAN_POINT ( 'NONE',  ( 6.121567084070132265E-14, -1.807013060897589991E-15, 17.53286496469848288 ) ) ;
#197 = APPROVAL_STATUS ( 'not_yet_approved' ) ;
#198 = LOCAL_TIME ( 7, 52, 50.00000000000000000, #147 ) ;
#199 = DIRECTION ( 'NONE',  ( 3.491481338843133355E-15, -1.030643345817079849E-16, 1.000000000000000000 ) ) ;
#200 = DIRECTION ( 'NONE',  ( 0.0000000000000000000, 1.000000000000000000, 0.0000000000000000000 ) ) ;
#201 = DATE_AND_TIME ( #128, #198 ) ;
#202 = ADVANCED_FACE ( 'NONE', ( #4 ), #22, .T. ) ;
#203 = PERSON_AND_ORGANIZATION ( #77, #193 ) ;
#204 =( NAMED_UNIT ( * ) SI_UNIT ( $, .STERADIAN. ) SOLID_ANGLE_UNIT ( ) );
#205 = DIRECTION ( 'NONE',  ( -1.592652633949629211E-30, 1.000000000000000000, -4.648952653842900258E-16 ) ) ;
#206 = EDGE_LOOP ( 'NONE', ( #207 ) ) ;
#207 = ORIENTED_EDGE ( 'NONE', *, *, #120, .F. ) ;
#208 = CC_DESIGN_APPROVAL ( #187, ( #226 ) ) ;
#209 = CC_DESIGN_PERSON_AND_ORGANIZATION_ASSIGNMENT ( #223, #178, ( #55 ) ) ;
#210 = CARTESIAN_POINT ( 'NONE',  ( 3.505447264198505636E-13, 2.999999999999985789, 100.4000000000000057 ) ) ;
#211 = FACE_BOUND ( 'NONE', #101, .T. ) ;
#212 = EDGE_LOOP ( 'NONE', ( #135 ) ) ;
#213 = ORIENTED_EDGE ( 'NONE', *, *, #87, .T. ) ;
#214 = DESIGN_CONTEXT ( 'detailed design', #171, 'design' ) ;
#215 = CC_DESIGN_DATE_AND_TIME_ASSIGNMENT ( #129, #90, ( #96 ) ) ;
#216 = CYLINDRICAL_SURFACE ( 'NONE', #104, 3.264999999999993907 ) ;
#217 = DIRECTION ( 'NONE',  ( 0.0000000000000000000, 0.0000000000000000000, 1.000000000000000000 ) ) ;
#218 = CLOSED_SHELL ( 'NONE', ( #2, #92, #188, #202 ) ) ;
#219 = APPLICATION_PROTOCOL_DEFINITION ( 'international standard', 'config_control_design', 1994, #140 ) ;
#220 = AXIS2_PLACEMENT_3D ( 'NONE', #156, #47, #200 ) ;
#221 = PLANE ( 'NONE',  #175 ) ;
#222 = CARTESIAN_POINT ( 'NONE',  ( 0.0000000000000000000, 0.0000000000000000000, 0.0000000000000000000 ) ) ;
#223 = PERSON_AND_ORGANIZATION ( #77, #193 ) ;
#224 = EDGE_LOOP ( 'NONE', ( #80 ) ) ;
#225 = CIRCLE ( 'NONE', #220, 2.399999999999996358 ) ;
#226 = PRODUCT_DEFINITION ( 'UNKNOWN', '', #55, #214 ) ;
#227 = APPROVAL_PERSON_ORGANIZATION ( #124, #144, #150 ) ;
#228 = VERTEX_POINT ( 'NONE', #100 ) ;
#229 = CC_DESIGN_APPROVAL ( #154, ( #96 ) ) ;
#230 = EDGE_CURVE ( 'NONE', #242, #242, #93, .T. ) ;
#231 = CARTESIAN_POINT ( 'NONE',  ( 4.878687954575873318E-30, 6.435206422832841189E-31, 1.397311765725311550E-15 ) ) ;
#232 = CARTESIAN_POINT ( 'NONE',  ( 6.281823795492844412E-14, 2.999999999999988010, 17.99185842870425489 ) ) ;
#233 = EDGE_LOOP ( 'NONE', ( #243 ) ) ;
#234 = CC_DESIGN_PERSON_AND_ORGANIZATION_ASSIGNMENT ( #14, #167, ( #55 ) ) ;
#235 = AXIS2_PLACEMENT_3D ( 'NONE', #113, #131, #105 ) ;
#236 = PERSON_AND_ORGANIZATION_ROLE ( 'creator' ) ;
#237 = DIRECTION ( 'NONE',  ( -3.491481338843133355E-15, -4.605419191824007289E-16, -1.000000000000000000 ) ) ;
#238 = APPROVAL_DATE_TIME ( #114, #187 ) ;
#239 = DIRECTION ( 'NONE',  ( 0.0000000000000000000, 1.000000000000000000, 0.0000000000000000000 ) ) ;
#240 = PERSON_AND_ORGANIZATION ( #77, #193 ) ;
#241 = CONICAL_SURFACE ( 'NONE', #111, 2.999999999999996003, 0.7853981633974453924 ) ;
#242 = VERTEX_POINT ( 'NONE', #32 ) ;
#243 = ORIENTED_EDGE ( 'NONE', *, *, #11, .F. ) ;
ENDSEC;
END-ISO-10303-21;
