ISO-10303-21;
HEADER;
FILE_DESCRIPTION (( 'STEP AP203' ),
    '1' );
FILE_NAME ('341701.step',
    '2021-11-26T06:52:49',
    ( '' ),
    ( '' ),
    'SwSTEP 2.0',
    'SolidWorks 2019',
    '' );
FILE_SCHEMA (( 'CONFIG_CONTROL_DESIGN' ));
ENDSEC;

DATA;
#1 = ORIENTED_EDGE ( 'NONE', *, *, #28, .F. ) ;
#2 = CLOSED_SHELL ( 'NONE', ( #155, #241, #61, #115 ) ) ;
#3 = APPROVAL_ROLE ( '' ) ;
#4 = LOCAL_TIME ( 7, 52, 49.00000000000000000, #105 ) ;
#5 = COORDINATED_UNIVERSAL_TIME_OFFSET ( 1, 0, .AHEAD. ) ;
#6 = VERTEX_POINT ( 'NONE', #130 ) ;
#7 = CARTESIAN_POINT ( 'NONE',  ( 1.396592535537253145E-15, 3.259999999999997122, 0.3999999999999999112 ) ) ;
#8 = ORIENTED_EDGE ( 'NONE', *, *, #176, .F. ) ;
#9 = CIRCLE ( 'NONE', #38, 3.259999999999989573 ) ;
#10 = CONICAL_SURFACE ( 'NONE', #73, 2.999999999999996003, 0.7853981633974453924 ) ;
#11 = DIRECTION ( 'NONE',  ( -3.491481338843133355E-15, 1.030643345817079849E-16, -1.000000000000000000 ) ) ;
#12 = FACE_BOUND ( 'NONE', #80, .T. ) ;
#13 = FACE_BOUND ( 'NONE', #205, .T. ) ;
#14 = ADVANCED_BREP_SHAPE_REPRESENTATION ( '341701', ( #230, #227, #29 ), #156 ) ;
#15 = CALENDAR_DATE ( 2021, 26, 11 ) ;
#16 = CARTESIAN_POINT ( 'NONE',  ( 4.866964590991037494E-30, 6.414887764175966940E-31, 1.393954060944131174E-15 ) ) ;
#17 = DATE_AND_TIME ( #15, #65 ) ;
#18 = APPROVAL ( #22, 'UNSPECIFIED' ) ;
#19 = ORIENTED_EDGE ( 'NONE', *, *, #176, .T. ) ;
#20 = EDGE_CURVE ( 'NONE', #175, #175, #9, .T. ) ;
#21 = APPROVAL_DATE_TIME ( #87, #123 ) ;
#22 = APPROVAL_STATUS ( 'not_yet_approved' ) ;
#23 = AXIS2_PLACEMENT_3D ( 'NONE', #30, #180, #83 ) ;
#24 = EDGE_LOOP ( 'NONE', ( #226 ) ) ;
#25 = EDGE_CURVE ( 'NONE', #194, #194, #64, .T. ) ;
#26 = APPLICATION_PROTOCOL_DEFINITION ( 'international standard', 'config_control_design', 1994, #222 ) ;
#27 = VERTEX_POINT ( 'NONE', #92 ) ;
#28 = EDGE_CURVE ( 'NONE', #39, #39, #31, .T. ) ;
#29 = AXIS2_PLACEMENT_3D ( 'NONE', #131, #192, #210 ) ;
#30 = CARTESIAN_POINT ( 'NONE',  ( 6.124590795606411663E-14, 8.072498129130658388E-15, 17.54152521873632864 ) ) ;
#31 = CIRCLE ( 'NONE', #231, 2.399999999999996358 ) ;
#32 = CYLINDRICAL_SURFACE ( 'NONE', #190, 2.999999999999993339 ) ;
#33 = FACE_OUTER_BOUND ( 'NONE', #157, .T. ) ;
#34 = LOCAL_TIME ( 7, 52, 49.00000000000000000, #187 ) ;
#35 = CALENDAR_DATE ( 2021, 26, 11 ) ;
#36 = DIRECTION ( 'NONE',  ( -3.491481338843133355E-15, -4.601936278897982881E-16, -1.000000000000000000 ) ) ;
#37 = PERSON_AND_ORGANIZATION ( #201, #168 ) ;
#38 = AXIS2_PLACEMENT_3D ( 'NONE', #240, #145, #186 ) ;
#39 = VERTEX_POINT ( 'NONE', #79 ) ;
#40 = APPROVAL_STATUS ( 'not_yet_approved' ) ;
#41 = APPLICATION_CONTEXT ( 'configuration controlled 3d designs of mechanical parts and assemblies' ) ;
#42 = CC_DESIGN_DATE_AND_TIME_ASSIGNMENT ( #107, #237, ( #88 ) ) ;
#43 = EDGE_LOOP ( 'NONE', ( #191 ) ) ;
#44 = PRODUCT_DEFINITION_FORMATION_WITH_SPECIFIED_SOURCE ( 'ANY', '', #178, .NOT_KNOWN. ) ;
#45 = UNCERTAINTY_MEASURE_WITH_UNIT (LENGTH_MEASURE( 1.000000000000000082E-05 ), #229, 'distance_accuracy_value', 'NONE');
#46 = CARTESIAN_POINT ( 'NONE',  ( 3.526396152231565067E-13, -1.040949779275250653E-14, 101.0000000000000000 ) ) ;
#47 = APPROVAL_PERSON_ORGANIZATION ( #208, #123, #3 ) ;
#48 = CC_DESIGN_PERSON_AND_ORGANIZATION_ASSIGNMENT ( #183, #202, ( #159 ) ) ;
#49 = DIRECTION ( 'NONE',  ( -3.491481338843133355E-15, 1.030643345817079849E-16, -1.000000000000000000 ) ) ;
#50 = CIRCLE ( 'NONE', #128, 2.999999999999989786 ) ;
#51 = FACE_OUTER_BOUND ( 'NONE', #166, .T. ) ;
#52 = CALENDAR_DATE ( 2021, 26, 11 ) ;
#53 = FACE_OUTER_BOUND ( 'NONE', #43, .T. ) ;
#54 = CC_DESIGN_APPROVAL ( #123, ( #88 ) ) ;
#55 = APPROVAL_PERSON_ORGANIZATION ( #218, #18, #125 ) ;
#56 = ORIENTED_EDGE ( 'NONE', *, *, #25, .F. ) ;
#57 = COORDINATED_UNIVERSAL_TIME_OFFSET ( 1, 0, .AHEAD. ) ;
#58 = DATE_TIME_ROLE ( 'classification_date' ) ;
#59 = CALENDAR_DATE ( 2021, 26, 11 ) ;
#60 = VERTEX_POINT ( 'NONE', #7 ) ;
#61 = ADVANCED_FACE ( 'NONE', ( #203, #161 ), #94, .T. ) ;
#62 = ORIENTED_EDGE ( 'NONE', *, *, #137, .T. ) ;
#63 =( NAMED_UNIT ( * ) SI_UNIT ( $, .STERADIAN. ) SOLID_ANGLE_UNIT ( ) );
#64 = CIRCLE ( 'NONE', #177, 2.999999999999996003 ) ;
#65 = LOCAL_TIME ( 7, 52, 49.00000000000000000, #57 ) ;
#66 = DIRECTION ( 'NONE',  ( -3.491481338843133355E-15, 1.030643345817079849E-16, -1.000000000000000000 ) ) ;
#67 = CC_DESIGN_DATE_AND_TIME_ASSIGNMENT ( #189, #58, ( #159 ) ) ;
#68 = CARTESIAN_POINT ( 'NONE',  ( 1.396592535537258272E-15, 1.840774511559199710E-16, 0.4000000000000014100 ) ) ;
#69 = DIRECTION ( 'NONE',  ( -3.491481338843133355E-15, 1.030643345817079849E-16, -1.000000000000000000 ) ) ;
#70 = DIRECTION ( 'NONE',  ( 0.0000000000000000000, 1.000000000000000000, 0.0000000000000000000 ) ) ;
#71 = DATE_AND_TIME ( #35, #150 ) ;
#72 = DIRECTION ( 'NONE',  ( -1.606757464031751744E-30, 1.000000000000000000, -4.601936278897982881E-16 ) ) ;
#73 = AXIS2_PLACEMENT_3D ( 'NONE', #233, #49, #119 ) ;
#74 = SHAPE_DEFINITION_REPRESENTATION ( #97, #14 ) ;
#75 = DIRECTION ( 'NONE',  ( -3.491481338843133355E-15, 1.030643345817079849E-16, -1.000000000000000000 ) ) ;
#76 = PERSON_AND_ORGANIZATION_ROLE ( 'creator' ) ;
#77 = ORIENTED_EDGE ( 'NONE', *, *, #28, .T. ) ;
#78 = CALENDAR_DATE ( 2021, 26, 11 ) ;
#79 = CARTESIAN_POINT ( 'NONE',  ( 3.526396152231565067E-13, 2.399999999999985700, 101.0000000000000000 ) ) ;
#80 = EDGE_LOOP ( 'NONE', ( #126 ) ) ;
#81 = AXIS2_PLACEMENT_3D ( 'NONE', #46, #179, #184 ) ;
#82 = CC_DESIGN_PERSON_AND_ORGANIZATION_ASSIGNMENT ( #173, #207, ( #178 ) ) ;
#83 = DIRECTION ( 'NONE',  ( 1.606757464031751744E-30, -1.000000000000000000, 4.601936278897982881E-16 ) ) ;
#84 = CARTESIAN_POINT ( 'NONE',  ( 6.124590795606410401E-14, -1.807905624217308998E-15, 17.54152521873632509 ) ) ;
#85 = DIRECTION ( 'NONE',  ( -3.491481338843133355E-15, 1.030643345817079849E-16, -1.000000000000000000 ) ) ;
#86 = CARTESIAN_POINT ( 'NONE',  ( 6.124590795606410401E-14, -1.807905624217308998E-15, 17.54152521873632509 ) ) ;
#87 = DATE_AND_TIME ( #78, #188 ) ;
#88 = PRODUCT_DEFINITION ( 'UNKNOWN', '', #44, #195 ) ;
#89 = CIRCLE ( 'NONE', #134, 3.259999999999999343 ) ;
#90 = APPROVAL_DATE_TIME ( #17, #18 ) ;
#91 = MECHANICAL_CONTEXT ( 'NONE', #222, 'mechanical' ) ;
#92 = CARTESIAN_POINT ( 'NONE',  ( 6.124590795606410401E-14, 3.259999999999997566, 17.54152521873632509 ) ) ;
#93 = EDGE_LOOP ( 'NONE', ( #122 ) ) ;
#94 = CONICAL_SURFACE ( 'NONE', #158, 3.029059892324147629, 0.5235987755982979275 ) ;
#95 = EDGE_CURVE ( 'NONE', #111, #111, #50, .T. ) ;
#96 = ADVANCED_FACE ( 'NONE', ( #138, #53 ), #32, .T. ) ;
#97 = PRODUCT_DEFINITION_SHAPE ( 'NONE', 'NONE',  #88 ) ;
#98 = PLANE ( 'NONE',  #216 ) ;
#99 = CARTESIAN_POINT ( 'NONE',  ( 3.526396152231565067E-13, -1.040949779275250653E-14, 101.0000000000000000 ) ) ;
#100 = DIRECTION ( 'NONE',  ( 3.598472008923184252E-31, 1.000000000000000000, 1.030643345817079849E-16 ) ) ;
#101 = PLANE ( 'NONE',  #141 ) ;
#102 = COORDINATED_UNIVERSAL_TIME_OFFSET ( 1, 0, .AHEAD. ) ;
#103 = PLANE ( 'NONE',  #81 ) ;
#104 = EDGE_LOOP ( 'NONE', ( #147 ) ) ;
#105 = COORDINATED_UNIVERSAL_TIME_OFFSET ( 1, 0, .AHEAD. ) ;
#106 = CC_DESIGN_PERSON_AND_ORGANIZATION_ASSIGNMENT ( #37, #170, ( #88 ) ) ;
#107 = DATE_AND_TIME ( #52, #4 ) ;
#108 = APPLICATION_PROTOCOL_DEFINITION ( 'international standard', 'config_control_design', 1994, #41 ) ;
#109 = CIRCLE ( 'NONE', #221, 3.259999999999997122 ) ;
#110 = APPROVAL_PERSON_ORGANIZATION ( #243, #133, #164 ) ;
#111 = VERTEX_POINT ( 'NONE', #129 ) ;
#112 = DIRECTION ( 'NONE',  ( -3.491481338843133355E-15, -4.601936278897982881E-16, -1.000000000000000000 ) ) ;
#113 = EDGE_LOOP ( 'NONE', ( #169 ) ) ;
#114 = CC_DESIGN_APPROVAL ( #133, ( #44 ) ) ;
#115 = ADVANCED_FACE ( 'NONE', ( #162 ), #101, .T. ) ;
#116 = AXIS2_PLACEMENT_3D ( 'NONE', #84, #66, #70 ) ;
#117 = DIRECTION ( 'NONE',  ( 1.606757464031751394E-30, -1.000000000000000000, 4.601936278897982881E-16 ) ) ;
#118 = FACE_OUTER_BOUND ( 'NONE', #24, .T. ) ;
#119 = DIRECTION ( 'NONE',  ( 0.0000000000000000000, 1.000000000000000000, 0.0000000000000000000 ) ) ;
#120 = APPROVAL_DATE_TIME ( #71, #133 ) ;
#121 = CARTESIAN_POINT ( 'NONE',  ( -2.433482295495518747E-30, 3.029059892324147629, -6.969770304720655869E-16 ) ) ;
#122 = ORIENTED_EDGE ( 'NONE', *, *, #20, .T. ) ;
#123 = APPROVAL ( #40, 'UNSPECIFIED' ) ;
#124 = DIRECTION ( 'NONE',  ( 0.0000000000000000000, 1.000000000000000000, 0.0000000000000000000 ) ) ;
#125 = APPROVAL_ROLE ( '' ) ;
#126 = ORIENTED_EDGE ( 'NONE', *, *, #95, .T. ) ;
#127 = PERSON_AND_ORGANIZATION ( #201, #168 ) ;
#128 = AXIS2_PLACEMENT_3D ( 'NONE', #217, #11, #163 ) ;
#129 = CARTESIAN_POINT ( 'NONE',  ( 6.281823795492844412E-14, 2.999999999999988010, 17.99185842870425489 ) ) ;
#130 = CARTESIAN_POINT ( 'NONE',  ( -6.842277657836020854E-46, 3.029059892324147629, 0.0000000000000000000 ) ) ;
#131 = CARTESIAN_POINT ( 'NONE',  ( 0.0000000000000000000, 0.0000000000000000000, 0.0000000000000000000 ) ) ;
#132 = EDGE_LOOP ( 'NONE', ( #211 ) ) ;
#133 = APPROVAL ( #185, 'UNSPECIFIED' ) ;
#134 = AXIS2_PLACEMENT_3D ( 'NONE', #86, #85, #160 ) ;
#135 = CARTESIAN_POINT ( 'NONE',  ( 0.0000000000000000000, 0.0000000000000000000, 0.0000000000000000000 ) ) ;
#136 = ADVANCED_FACE ( 'NONE', ( #234 ), #103, .T. ) ;
#137 = EDGE_CURVE ( 'NONE', #27, #27, #89, .T. ) ;
#138 = FACE_OUTER_BOUND ( 'NONE', #132, .T. ) ;
#139 = DIRECTION ( 'NONE',  ( -3.491481338843133355E-15, -4.601936278897982881E-16, -1.000000000000000000 ) ) ;
#140 = CARTESIAN_POINT ( 'NONE',  ( 6.124590795606411663E-14, 3.259999999999997566, 17.54152521873632864 ) ) ;
#141 = AXIS2_PLACEMENT_3D ( 'NONE', #121, #36, #72 ) ;
#142 = FACE_OUTER_BOUND ( 'NONE', #93, .T. ) ;
#143 = PERSON_AND_ORGANIZATION ( #201, #168 ) ;
#144 = FACE_OUTER_BOUND ( 'NONE', #149, .T. ) ;
#145 = DIRECTION ( 'NONE',  ( -3.491481338843133355E-15, -4.601936278897982881E-16, -1.000000000000000000 ) ) ;
#146 = EDGE_CURVE ( 'NONE', #6, #6, #171, .T. ) ;
#147 = ORIENTED_EDGE ( 'NONE', *, *, #146, .T. ) ;
#148 = SECURITY_CLASSIFICATION_LEVEL ( 'unclassified' ) ;
#149 = EDGE_LOOP ( 'NONE', ( #56 ) ) ;
#150 = LOCAL_TIME ( 7, 52, 49.00000000000000000, #102 ) ;
#151 =( NAMED_UNIT ( * ) PLANE_ANGLE_UNIT ( ) SI_UNIT ( $, .RADIAN. ) );
#152 = CARTESIAN_POINT ( 'NONE',  ( 6.124590795606410401E-14, 3.259999999999997566, 17.54152521873632509 ) ) ;
#153 = DIRECTION ( 'NONE',  ( -3.491481338843133355E-15, 1.030643345817079849E-16, -1.000000000000000000 ) ) ;
#154 = CARTESIAN_POINT ( 'NONE',  ( 3.505447264198505636E-13, 2.999999999999985789, 100.4000000000000057 ) ) ;
#155 = ADVANCED_FACE ( 'NONE', ( #165 ), #239, .T. ) ;
#156 =( GEOMETRIC_REPRESENTATION_CONTEXT ( 3 ) GLOBAL_UNCERTAINTY_ASSIGNED_CONTEXT ( ( #45 ) ) GLOBAL_UNIT_ASSIGNED_CONTEXT ( ( #229, #151, #63 ) ) REPRESENTATION_CONTEXT ( 'NONE', 'WORKASPACE' ) );
#157 = EDGE_LOOP ( 'NONE', ( #62 ) ) ;
#158 = AXIS2_PLACEMENT_3D ( 'NONE', #16, #199, #117 ) ;
#159 = SECURITY_CLASSIFICATION ( '', '', #148 ) ;
#160 = DIRECTION ( 'NONE',  ( 0.0000000000000000000, 1.000000000000000000, 0.0000000000000000000 ) ) ;
#161 = FACE_BOUND ( 'NONE', #204, .T. ) ;
#162 = FACE_OUTER_BOUND ( 'NONE', #104, .T. ) ;
#163 = DIRECTION ( 'NONE',  ( 0.0000000000000000000, 1.000000000000000000, 0.0000000000000000000 ) ) ;
#164 = APPROVAL_ROLE ( '' ) ;
#165 = FACE_OUTER_BOUND ( 'NONE', #113, .T. ) ;
#166 = EDGE_LOOP ( 'NONE', ( #8 ) ) ;
#167 = ADVANCED_FACE ( 'NONE', ( #33 ), #98, .T. ) ;
#168 = ORGANIZATION ( 'UNSPECIFIED', 'UNSPECIFIED', '' ) ;
#169 = ORIENTED_EDGE ( 'NONE', *, *, #20, .F. ) ;
#170 = PERSON_AND_ORGANIZATION_ROLE ( 'creator' ) ;
#171 = CIRCLE ( 'NONE', #198, 3.029059892324147629 ) ;
#172 = PERSON_AND_ORGANIZATION_ROLE ( 'design_supplier' ) ;
#173 = PERSON_AND_ORGANIZATION ( #201, #168 ) ;
#174 = DIRECTION ( 'NONE',  ( -1.606757464031751744E-30, 1.000000000000000000, -4.601936278897982881E-16 ) ) ;
#175 = VERTEX_POINT ( 'NONE', #152 ) ;
#176 = EDGE_CURVE ( 'NONE', #60, #60, #109, .T. ) ;
#177 = AXIS2_PLACEMENT_3D ( 'NONE', #223, #75, #124 ) ;
#178 = PRODUCT ( '341701', '341701', '', ( #91 ) ) ;
#179 = DIRECTION ( 'NONE',  ( 3.491481338843133355E-15, -1.030643345817079849E-16, 1.000000000000000000 ) ) ;
#180 = DIRECTION ( 'NONE',  ( 3.491481338843133355E-15, 4.601936278897982881E-16, 1.000000000000000000 ) ) ;
#181 = DIRECTION ( 'NONE',  ( -3.491481338843133355E-15, 1.030643345817079849E-16, -1.000000000000000000 ) ) ;
#182 = CC_DESIGN_APPROVAL ( #18, ( #159 ) ) ;
#183 = PERSON_AND_ORGANIZATION ( #201, #168 ) ;
#184 = DIRECTION ( 'NONE',  ( -3.598472008923184252E-31, -1.000000000000000000, -1.030643345817079849E-16 ) ) ;
#185 = APPROVAL_STATUS ( 'not_yet_approved' ) ;
#186 = DIRECTION ( 'NONE',  ( 0.0000000000000000000, 1.000000000000000000, 0.0000000000000000000 ) ) ;
#187 = COORDINATED_UNIVERSAL_TIME_OFFSET ( 1, 0, .AHEAD. ) ;
#188 = LOCAL_TIME ( 7, 52, 49.00000000000000000, #5 ) ;
#189 = DATE_AND_TIME ( #59, #34 ) ;
#190 = AXIS2_PLACEMENT_3D ( 'NONE', #200, #69, #213 ) ;
#191 = ORIENTED_EDGE ( 'NONE', *, *, #95, .F. ) ;
#192 = DIRECTION ( 'NONE',  ( 0.0000000000000000000, 0.0000000000000000000, 1.000000000000000000 ) ) ;
#193 = CONICAL_SURFACE ( 'NONE', #116, 3.259999999999999343, 0.5235987755982949299 ) ;
#194 = VERTEX_POINT ( 'NONE', #154 ) ;
#195 = DESIGN_CONTEXT ( 'detailed design', #41, 'design' ) ;
#196 = CC_DESIGN_PERSON_AND_ORGANIZATION_ASSIGNMENT ( #127, #172, ( #44 ) ) ;
#197 = CARTESIAN_POINT ( 'NONE',  ( 4.866964590991037494E-30, 6.414887764175966940E-31, 1.393954060944131174E-15 ) ) ;
#198 = AXIS2_PLACEMENT_3D ( 'NONE', #197, #238, #235 ) ;
#199 = DIRECTION ( 'NONE',  ( 3.491481338843133355E-15, 4.601936278897982881E-16, 1.000000000000000000 ) ) ;
#200 = CARTESIAN_POINT ( 'NONE',  ( 0.0000000000000000000, 0.0000000000000000000, 0.0000000000000000000 ) ) ;
#201 = PERSON ( 'UNSPECIFIED', 'UNSPECIFIED', 'UNSPECIFIED', ('UNSPECIFIED'), ('UNSPECIFIED'), ('UNSPECIFIED') ) ;
#202 = PERSON_AND_ORGANIZATION_ROLE ( 'classification_officer' ) ;
#203 = FACE_OUTER_BOUND ( 'NONE', #242, .T. ) ;
#204 = EDGE_LOOP ( 'NONE', ( #224 ) ) ;
#205 = EDGE_LOOP ( 'NONE', ( #77 ) ) ;
#206 = CC_DESIGN_PERSON_AND_ORGANIZATION_ASSIGNMENT ( #143, #76, ( #44 ) ) ;
#207 = PERSON_AND_ORGANIZATION_ROLE ( 'design_owner' ) ;
#208 = PERSON_AND_ORGANIZATION ( #201, #168 ) ;
#209 = AXIS2_PLACEMENT_3D ( 'NONE', #135, #112, #174 ) ;
#210 = DIRECTION ( 'NONE',  ( 1.000000000000000000, 0.0000000000000000000, 0.0000000000000000000 ) ) ;
#211 = ORIENTED_EDGE ( 'NONE', *, *, #25, .T. ) ;
#212 = CC_DESIGN_SECURITY_CLASSIFICATION ( #159, ( #44 ) ) ;
#213 = DIRECTION ( 'NONE',  ( 3.598472008923184252E-31, 1.000000000000000000, 1.030643345817079726E-16 ) ) ;
#214 = ADVANCED_FACE ( 'NONE', ( #13, #144 ), #10, .T. ) ;
#215 = DIRECTION ( 'NONE',  ( -1.595095352713356270E-30, 1.000000000000000000, -4.656082949324255812E-16 ) ) ;
#216 = AXIS2_PLACEMENT_3D ( 'NONE', #140, #181, #100 ) ;
#217 = CARTESIAN_POINT ( 'NONE',  ( 6.281823795492844412E-14, -1.854318916842698141E-15, 17.99185842870425489 ) ) ;
#218 = PERSON_AND_ORGANIZATION ( #201, #168 ) ;
#219 = CYLINDRICAL_SURFACE ( 'NONE', #209, 3.259999999999993570 ) ;
#220 = CLOSED_SHELL ( 'NONE', ( #136, #214, #96, #232, #167 ) ) ;
#221 = AXIS2_PLACEMENT_3D ( 'NONE', #68, #139, #215 ) ;
#222 = APPLICATION_CONTEXT ( 'configuration controlled 3d designs of mechanical parts and assemblies' ) ;
#223 = CARTESIAN_POINT ( 'NONE',  ( 3.505447264198505636E-13, -1.034765919200348261E-14, 100.4000000000000057 ) ) ;
#224 = ORIENTED_EDGE ( 'NONE', *, *, #146, .F. ) ;
#225 = PRODUCT_RELATED_PRODUCT_CATEGORY ( 'detail', '', ( #178 ) ) ;
#226 = ORIENTED_EDGE ( 'NONE', *, *, #137, .F. ) ;
#227 = MANIFOLD_SOLID_BREP ( 'Corps-Déplacer/Copier1[2]', #2 ) ;
#228 = EDGE_LOOP ( 'NONE', ( #1 ) ) ;
#229 =( LENGTH_UNIT ( ) NAMED_UNIT ( * ) SI_UNIT ( .MILLI., .METRE. ) );
#230 = MANIFOLD_SOLID_BREP ( 'Corps-Déplacer/Copier1[1]', #220 ) ;
#231 = AXIS2_PLACEMENT_3D ( 'NONE', #99, #153, #236 ) ;
#232 = ADVANCED_FACE ( 'NONE', ( #12, #118 ), #193, .T. ) ;
#233 = CARTESIAN_POINT ( 'NONE',  ( 3.505447264198505636E-13, -1.034765919200348261E-14, 100.4000000000000057 ) ) ;
#234 = FACE_OUTER_BOUND ( 'NONE', #228, .T. ) ;
#235 = DIRECTION ( 'NONE',  ( -1.606757464031751744E-30, 1.000000000000000000, -4.601936278897982881E-16 ) ) ;
#236 = DIRECTION ( 'NONE',  ( 0.0000000000000000000, 1.000000000000000000, 0.0000000000000000000 ) ) ;
#237 = DATE_TIME_ROLE ( 'creation_date' ) ;
#238 = DIRECTION ( 'NONE',  ( -3.491481338843133355E-15, -4.601936278897982881E-16, -1.000000000000000000 ) ) ;
#239 = PLANE ( 'NONE',  #23 ) ;
#240 = CARTESIAN_POINT ( 'NONE',  ( 6.124590795606410401E-14, 8.072498129130656810E-15, 17.54152521873632509 ) ) ;
#241 = ADVANCED_FACE ( 'NONE', ( #142, #51 ), #219, .T. ) ;
#242 = EDGE_LOOP ( 'NONE', ( #19 ) ) ;
#243 = PERSON_AND_ORGANIZATION ( #201, #168 ) ;
ENDSEC;
END-ISO-10303-21;
