ISO-10303-21;
HEADER;
FILE_DESCRIPTION (( 'STEP AP203' ),
    '1' );
FILE_NAME ('341700.step',
    '2021-11-26T06:52:49',
    ( '' ),
    ( '' ),
    'SwSTEP 2.0',
    'SolidWorks 2019',
    '' );
FILE_SCHEMA (( 'CONFIG_CONTROL_DESIGN' ));
ENDSEC;

DATA;
#1 =( NAMED_UNIT ( * ) PLANE_ANGLE_UNIT ( ) SI_UNIT ( $, .RADIAN. ) );
#2 = CIRCLE ( 'NONE', #81, 2.999999999999996003 ) ;
#3 = DIRECTION ( 'NONE',  ( -3.491481338843133355E-15, -4.598456803304381117E-16, -1.000000000000000000 ) ) ;
#4 = FACE_OUTER_BOUND ( 'NONE', #156, .T. ) ;
#5 = AXIS2_PLACEMENT_3D ( 'NONE', #75, #234, #94 ) ;
#6 = CARTESIAN_POINT ( 'NONE',  ( 3.526396152231565067E-13, -1.040949779275250653E-14, 101.0000000000000000 ) ) ;
#7 = ADVANCED_FACE ( 'NONE', ( #224 ), #12, .T. ) ;
#8 = SHAPE_DEFINITION_REPRESENTATION ( #103, #9 ) ;
#9 = ADVANCED_BREP_SHAPE_REPRESENTATION ( '341700', ( #55, #145, #129 ), #186 ) ;
#10 = ORIENTED_EDGE ( 'NONE', *, *, #169, .T. ) ;
#11 = COORDINATED_UNIVERSAL_TIME_OFFSET ( 1, 0, .AHEAD. ) ;
#12 = PLANE ( 'NONE',  #109 ) ;
#13 = AXIS2_PLACEMENT_3D ( 'NONE', #155, #151, #115 ) ;
#14 = EDGE_LOOP ( 'NONE', ( #24 ) ) ;
#15 = PERSON_AND_ORGANIZATION ( #152, #212 ) ;
#16 = CARTESIAN_POINT ( 'NONE',  ( 4.855257017221488934E-30, 6.394618070629933054E-31, 1.390600878545789150E-15 ) ) ;
#17 = CIRCLE ( 'NONE', #118, 3.254999999999997673 ) ;
#18 = PLANE ( 'NONE',  #236 ) ;
#19 = CARTESIAN_POINT ( 'NONE',  ( 6.281823795492844412E-14, -1.854318916842698141E-15, 17.99185842870425489 ) ) ;
#20 = CYLINDRICAL_SURFACE ( 'NONE', #5, 2.999999999999993339 ) ;
#21 = EDGE_CURVE ( 'NONE', #89, #89, #52, .T. ) ;
#22 = CARTESIAN_POINT ( 'NONE',  ( 3.505447264198505636E-13, -1.034765919200348261E-14, 100.4000000000000057 ) ) ;
#23 = AXIS2_PLACEMENT_3D ( 'NONE', #16, #142, #86 ) ;
#24 = ORIENTED_EDGE ( 'NONE', *, *, #21, .F. ) ;
#25 = DIRECTION ( 'NONE',  ( -3.491481338843133355E-15, 1.030643345817079849E-16, -1.000000000000000000 ) ) ;
#26 = CALENDAR_DATE ( 2021, 26, 11 ) ;
#27 = APPROVAL_ROLE ( '' ) ;
#28 = AXIS2_PLACEMENT_3D ( 'NONE', #22, #157, #232 ) ;
#29 = CC_DESIGN_PERSON_AND_ORGANIZATION_ASSIGNMENT ( #106, #188, ( #176 ) ) ;
#30 = VERTEX_POINT ( 'NONE', #107 ) ;
#31 = DIRECTION ( 'NONE',  ( 0.0000000000000000000, 0.0000000000000000000, 1.000000000000000000 ) ) ;
#32 = APPLICATION_PROTOCOL_DEFINITION ( 'international standard', 'config_control_design', 1994, #163 ) ;
#33 = AXIS2_PLACEMENT_3D ( 'NONE', #181, #3, #38 ) ;
#34 = ADVANCED_FACE ( 'NONE', ( #130, #190 ), #192, .T. ) ;
#35 = DIRECTION ( 'NONE',  ( -3.491481338843133355E-15, 1.030643345817079849E-16, -1.000000000000000000 ) ) ;
#36 = DIRECTION ( 'NONE',  ( -3.491481338843133355E-15, -4.598456803304381117E-16, -1.000000000000000000 ) ) ;
#37 = DIRECTION ( 'NONE',  ( 0.0000000000000000000, 1.000000000000000000, 0.0000000000000000000 ) ) ;
#38 = DIRECTION ( 'NONE',  ( 0.0000000000000000000, 1.000000000000000000, 0.0000000000000000000 ) ) ;
#39 = EDGE_LOOP ( 'NONE', ( #73 ) ) ;
#40 = ADVANCED_FACE ( 'NONE', ( #117, #199 ), #195, .T. ) ;
#41 = PERSON_AND_ORGANIZATION ( #152, #212 ) ;
#42 = CALENDAR_DATE ( 2021, 26, 11 ) ;
#43 = EDGE_LOOP ( 'NONE', ( #96 ) ) ;
#44 = APPROVAL_DATE_TIME ( #122, #238 ) ;
#45 = CC_DESIGN_APPROVAL ( #48, ( #176 ) ) ;
#46 = AXIS2_PLACEMENT_3D ( 'NONE', #213, #113, #121 ) ;
#47 = COORDINATED_UNIVERSAL_TIME_OFFSET ( 1, 0, .AHEAD. ) ;
#48 = APPROVAL ( #65, 'UNSPECIFIED' ) ;
#49 = CARTESIAN_POINT ( 'NONE',  ( 3.526396152231565067E-13, 2.399999999999985700, 101.0000000000000000 ) ) ;
#50 = SECURITY_CLASSIFICATION ( '', '', #149 ) ;
#51 = EDGE_CURVE ( 'NONE', #227, #227, #220, .T. ) ;
#52 = CIRCLE ( 'NONE', #197, 3.254999999999999449 ) ;
#53 = EDGE_LOOP ( 'NONE', ( #222 ) ) ;
#54 = CARTESIAN_POINT ( 'NONE',  ( 6.127614507142687274E-14, -1.808798187537028005E-15, 17.55018547277417085 ) ) ;
#55 = MANIFOLD_SOLID_BREP ( 'Corps-Déplacer/Copier1[1]', #138 ) ;
#56 = FACE_BOUND ( 'NONE', #136, .T. ) ;
#57 = DIRECTION ( 'NONE',  ( -3.491481338843133355E-15, 1.030643345817079849E-16, -1.000000000000000000 ) ) ;
#58 = LOCAL_TIME ( 7, 52, 49.00000000000000000, #11 ) ;
#59 = ORIENTED_EDGE ( 'NONE', *, *, #21, .T. ) ;
#60 = UNCERTAINTY_MEASURE_WITH_UNIT (LENGTH_MEASURE( 1.000000000000000082E-05 ), #110, 'distance_accuracy_value', 'NONE');
#61 = AXIS2_PLACEMENT_3D ( 'NONE', #54, #35, #114 ) ;
#62 = EDGE_LOOP ( 'NONE', ( #202 ) ) ;
#63 = CONICAL_SURFACE ( 'NONE', #61, 3.254999999999999449, 0.5235987755982942637 ) ;
#64 = CALENDAR_DATE ( 2021, 26, 11 ) ;
#65 = APPROVAL_STATUS ( 'not_yet_approved' ) ;
#66 = CARTESIAN_POINT ( 'NONE',  ( 6.127614507142687274E-14, 3.254999999999998117, 17.55018547277417440 ) ) ;
#67 = EDGE_CURVE ( 'NONE', #128, #128, #240, .T. ) ;
#68 = CARTESIAN_POINT ( 'NONE',  ( 6.127614507142687274E-14, 3.254999999999998117, 17.55018547277417085 ) ) ;
#69 = DIRECTION ( 'NONE',  ( 3.491481338843133355E-15, -1.030643345817079849E-16, 1.000000000000000000 ) ) ;
#70 = VERTEX_POINT ( 'NONE', #210 ) ;
#71 = AXIS2_PLACEMENT_3D ( 'NONE', #19, #132, #160 ) ;
#72 = CC_DESIGN_PERSON_AND_ORGANIZATION_ASSIGNMENT ( #228, #171, ( #112 ) ) ;
#73 = ORIENTED_EDGE ( 'NONE', *, *, #153, .F. ) ;
#74 = DIRECTION ( 'NONE',  ( 1.605542611621349414E-30, -1.000000000000000000, 4.598456803304381117E-16 ) ) ;
#75 = CARTESIAN_POINT ( 'NONE',  ( 0.0000000000000000000, 0.0000000000000000000, 0.0000000000000000000 ) ) ;
#76 = ORIENTED_EDGE ( 'NONE', *, *, #139, .F. ) ;
#77 = CC_DESIGN_DATE_AND_TIME_ASSIGNMENT ( #241, #125, ( #184 ) ) ;
#78 = FACE_BOUND ( 'NONE', #203, .T. ) ;
#79 = CC_DESIGN_APPROVAL ( #173, ( #50 ) ) ;
#80 = ORIENTED_EDGE ( 'NONE', *, *, #194, .T. ) ;
#81 = AXIS2_PLACEMENT_3D ( 'NONE', #217, #57, #37 ) ;
#82 = PERSON_AND_ORGANIZATION ( #152, #212 ) ;
#83 = DATE_TIME_ROLE ( 'classification_date' ) ;
#84 = APPROVAL_DATE_TIME ( #207, #48 ) ;
#85 = DIRECTION ( 'NONE',  ( -3.491481338843133355E-15, 1.030643345817079849E-16, -1.000000000000000000 ) ) ;
#86 = DIRECTION ( 'NONE',  ( 1.605542611621349414E-30, -1.000000000000000000, 4.598456803304381117E-16 ) ) ;
#87 = CARTESIAN_POINT ( 'NONE',  ( 6.127614507142687274E-14, 3.254999999999998117, 17.55018547277417085 ) ) ;
#88 = APPROVAL_STATUS ( 'not_yet_approved' ) ;
#89 = VERTEX_POINT ( 'NONE', #68 ) ;
#90 =( NAMED_UNIT ( * ) SI_UNIT ( $, .STERADIAN. ) SOLID_ANGLE_UNIT ( ) );
#91 = LOCAL_TIME ( 7, 52, 49.00000000000000000, #47 ) ;
#92 = CARTESIAN_POINT ( 'NONE',  ( 6.127614507142687274E-14, 8.070376978653211455E-15, 17.55018547277417440 ) ) ;
#93 = PLANE ( 'NONE',  #135 ) ;
#94 = DIRECTION ( 'NONE',  ( 3.598472008923184252E-31, 1.000000000000000000, 1.030643345817079726E-16 ) ) ;
#95 = AXIS2_PLACEMENT_3D ( 'NONE', #6, #25, #183 ) ;
#96 = ORIENTED_EDGE ( 'NONE', *, *, #169, .F. ) ;
#97 = CC_DESIGN_DATE_AND_TIME_ASSIGNMENT ( #140, #83, ( #50 ) ) ;
#98 = EDGE_LOOP ( 'NONE', ( #233 ) ) ;
#99 = PRODUCT_RELATED_PRODUCT_CATEGORY ( 'detail', '', ( #112 ) ) ;
#100 = APPROVAL_DATE_TIME ( #239, #173 ) ;
#101 = PERSON_AND_ORGANIZATION ( #152, #212 ) ;
#102 = PERSON_AND_ORGANIZATION_ROLE ( 'classification_officer' ) ;
#103 = PRODUCT_DEFINITION_SHAPE ( 'NONE', 'NONE',  #184 ) ;
#104 = COORDINATED_UNIVERSAL_TIME_OFFSET ( 1, 0, .AHEAD. ) ;
#105 = CONICAL_SURFACE ( 'NONE', #28, 2.999999999999996003, 0.7853981633974453924 ) ;
#106 = PERSON_AND_ORGANIZATION ( #152, #212 ) ;
#107 = CARTESIAN_POINT ( 'NONE',  ( 3.505447264198505636E-13, 2.999999999999985789, 100.4000000000000057 ) ) ;
#108 = DIRECTION ( 'NONE',  ( 1.000000000000000000, 0.0000000000000000000, 0.0000000000000000000 ) ) ;
#109 = AXIS2_PLACEMENT_3D ( 'NONE', #66, #85, #124 ) ;
#110 =( LENGTH_UNIT ( ) NAMED_UNIT ( * ) SI_UNIT ( .MILLI., .METRE. ) );
#111 = CC_DESIGN_PERSON_AND_ORGANIZATION_ASSIGNMENT ( #41, #102, ( #50 ) ) ;
#112 = PRODUCT ( '341700', '341700', '', ( #127 ) ) ;
#113 = DIRECTION ( 'NONE',  ( -3.491481338843133355E-15, -4.598456803304381117E-16, -1.000000000000000000 ) ) ;
#114 = DIRECTION ( 'NONE',  ( 0.0000000000000000000, 1.000000000000000000, 0.0000000000000000000 ) ) ;
#115 = DIRECTION ( 'NONE',  ( -1.605542611621349414E-30, 1.000000000000000000, -4.598456803304381117E-16 ) ) ;
#116 = FACE_OUTER_BOUND ( 'NONE', #182, .T. ) ;
#117 = FACE_OUTER_BOUND ( 'NONE', #159, .T. ) ;
#118 = AXIS2_PLACEMENT_3D ( 'NONE', #216, #36, #218 ) ;
#119 = ORIENTED_EDGE ( 'NONE', *, *, #67, .F. ) ;
#120 = ADVANCED_FACE ( 'NONE', ( #178 ), #93, .T. ) ;
#121 = DIRECTION ( 'NONE',  ( -1.605542611621349414E-30, 1.000000000000000000, -4.598456803304381117E-16 ) ) ;
#122 = DATE_AND_TIME ( #167, #231 ) ;
#123 = APPROVAL_STATUS ( 'not_yet_approved' ) ;
#124 = DIRECTION ( 'NONE',  ( 3.598472008923184252E-31, 1.000000000000000000, 1.030643345817079849E-16 ) ) ;
#125 = DATE_TIME_ROLE ( 'creation_date' ) ;
#126 = DIRECTION ( 'NONE',  ( -3.598472008923184252E-31, -1.000000000000000000, -1.030643345817079849E-16 ) ) ;
#127 = MECHANICAL_CONTEXT ( 'NONE', #174, 'mechanical' ) ;
#128 = VERTEX_POINT ( 'NONE', #208 ) ;
#129 = AXIS2_PLACEMENT_3D ( 'NONE', #209, #31, #108 ) ;
#130 = FACE_OUTER_BOUND ( 'NONE', #98, .T. ) ;
#131 = PERSON_AND_ORGANIZATION_ROLE ( 'design_supplier' ) ;
#132 = DIRECTION ( 'NONE',  ( -3.491481338843133355E-15, 1.030643345817079849E-16, -1.000000000000000000 ) ) ;
#133 = FACE_OUTER_BOUND ( 'NONE', #14, .T. ) ;
#134 = CC_DESIGN_PERSON_AND_ORGANIZATION_ASSIGNMENT ( #164, #205, ( #184 ) ) ;
#135 = AXIS2_PLACEMENT_3D ( 'NONE', #200, #180, #154 ) ;
#136 = EDGE_LOOP ( 'NONE', ( #215 ) ) ;
#137 = CC_DESIGN_APPROVAL ( #238, ( #184 ) ) ;
#138 = CLOSED_SHELL ( 'NONE', ( #230, #147, #204, #214, #7 ) ) ;
#139 = EDGE_CURVE ( 'NONE', #30, #30, #2, .T. ) ;
#140 = DATE_AND_TIME ( #42, #58 ) ;
#141 = CARTESIAN_POINT ( 'NONE',  ( 6.127614507142687274E-14, -1.808798187537028005E-15, 17.55018547277417085 ) ) ;
#142 = DIRECTION ( 'NONE',  ( 3.491481338843133355E-15, 4.598456803304381117E-16, 1.000000000000000000 ) ) ;
#143 = CARTESIAN_POINT ( 'NONE',  ( 3.526396152231565067E-13, -1.040949779275250653E-14, 101.0000000000000000 ) ) ;
#144 = CC_DESIGN_PERSON_AND_ORGANIZATION_ASSIGNMENT ( #82, #131, ( #176 ) ) ;
#145 = MANIFOLD_SOLID_BREP ( 'Corps-Déplacer/Copier1[2]', #223 ) ;
#146 = FACE_OUTER_BOUND ( 'NONE', #62, .T. ) ;
#147 = ADVANCED_FACE ( 'NONE', ( #78, #116 ), #105, .T. ) ;
#148 = APPROVAL_PERSON_ORGANIZATION ( #206, #173, #27 ) ;
#149 = SECURITY_CLASSIFICATION_LEVEL ( 'unclassified' ) ;
#150 = ORIENTED_EDGE ( 'NONE', *, *, #139, .T. ) ;
#151 = DIRECTION ( 'NONE',  ( -3.491481338843133355E-15, -4.598456803304381117E-16, -1.000000000000000000 ) ) ;
#152 = PERSON ( 'UNSPECIFIED', 'UNSPECIFIED', 'UNSPECIFIED', ('UNSPECIFIED'), ('UNSPECIFIED'), ('UNSPECIFIED') ) ;
#153 = EDGE_CURVE ( 'NONE', #70, #70, #17, .T. ) ;
#154 = DIRECTION ( 'NONE',  ( -1.605542611621349414E-30, 1.000000000000000000, -4.598456803304381117E-16 ) ) ;
#155 = CARTESIAN_POINT ( 'NONE',  ( 4.855257017221488934E-30, 6.394618070629933054E-31, 1.390600878545789150E-15 ) ) ;
#156 = EDGE_LOOP ( 'NONE', ( #119 ) ) ;
#157 = DIRECTION ( 'NONE',  ( -3.491481338843133355E-15, 1.030643345817079849E-16, -1.000000000000000000 ) ) ;
#158 = AXIS2_PLACEMENT_3D ( 'NONE', #143, #69, #126 ) ;
#159 = EDGE_LOOP ( 'NONE', ( #10 ) ) ;
#160 = DIRECTION ( 'NONE',  ( 0.0000000000000000000, 1.000000000000000000, 0.0000000000000000000 ) ) ;
#161 = APPROVAL_PERSON_ORGANIZATION ( #101, #48, #225 ) ;
#162 = EDGE_LOOP ( 'NONE', ( #59 ) ) ;
#163 = APPLICATION_CONTEXT ( 'configuration controlled 3d designs of mechanical parts and assemblies' ) ;
#164 = PERSON_AND_ORGANIZATION ( #152, #212 ) ;
#165 = COORDINATED_UNIVERSAL_TIME_OFFSET ( 1, 0, .AHEAD. ) ;
#166 = CIRCLE ( 'NONE', #13, 3.024059892324147736 ) ;
#167 = CALENDAR_DATE ( 2021, 26, 11 ) ;
#168 = LOCAL_TIME ( 7, 52, 49.00000000000000000, #165 ) ;
#169 = EDGE_CURVE ( 'NONE', #189, #189, #175, .T. ) ;
#170 = VERTEX_POINT ( 'NONE', #242 ) ;
#171 = PERSON_AND_ORGANIZATION_ROLE ( 'design_owner' ) ;
#172 = APPLICATION_PROTOCOL_DEFINITION ( 'international standard', 'config_control_design', 1994, #174 ) ;
#173 = APPROVAL ( #123, 'UNSPECIFIED' ) ;
#174 = APPLICATION_CONTEXT ( 'configuration controlled 3d designs of mechanical parts and assemblies' ) ;
#175 = CIRCLE ( 'NONE', #33, 3.254999999999989679 ) ;
#176 = PRODUCT_DEFINITION_FORMATION_WITH_SPECIFIED_SOURCE ( 'ANY', '', #112, .NOT_KNOWN. ) ;
#177 = ORIENTED_EDGE ( 'NONE', *, *, #51, .T. ) ;
#178 = FACE_OUTER_BOUND ( 'NONE', #235, .T. ) ;
#179 = DIRECTION ( 'NONE',  ( 3.491481338843133355E-15, 4.598456803304381117E-16, 1.000000000000000000 ) ) ;
#180 = DIRECTION ( 'NONE',  ( -3.491481338843133355E-15, -4.598456803304381117E-16, -1.000000000000000000 ) ) ;
#181 = CARTESIAN_POINT ( 'NONE',  ( 6.127614507142687274E-14, 8.070376978653209877E-15, 17.55018547277417085 ) ) ;
#182 = EDGE_LOOP ( 'NONE', ( #76 ) ) ;
#183 = DIRECTION ( 'NONE',  ( 0.0000000000000000000, 1.000000000000000000, 0.0000000000000000000 ) ) ;
#184 = PRODUCT_DEFINITION ( 'UNKNOWN', '', #176, #221 ) ;
#185 = CALENDAR_DATE ( 2021, 26, 11 ) ;
#186 =( GEOMETRIC_REPRESENTATION_CONTEXT ( 3 ) GLOBAL_UNCERTAINTY_ASSIGNED_CONTEXT ( ( #60 ) ) GLOBAL_UNIT_ASSIGNED_CONTEXT ( ( #110, #1, #90 ) ) REPRESENTATION_CONTEXT ( 'NONE', 'WORKASPACE' ) );
#187 = COORDINATED_UNIVERSAL_TIME_OFFSET ( 1, 0, .AHEAD. ) ;
#188 = PERSON_AND_ORGANIZATION_ROLE ( 'creator' ) ;
#189 = VERTEX_POINT ( 'NONE', #87 ) ;
#190 = FACE_BOUND ( 'NONE', #53, .T. ) ;
#191 = CC_DESIGN_SECURITY_CLASSIFICATION ( #50, ( #176 ) ) ;
#192 = CONICAL_SURFACE ( 'NONE', #23, 3.024059892324147736, 0.5235987755982979275 ) ;
#193 = FACE_OUTER_BOUND ( 'NONE', #43, .T. ) ;
#194 = EDGE_CURVE ( 'NONE', #170, #170, #166, .T. ) ;
#195 = CYLINDRICAL_SURFACE ( 'NONE', #46, 3.254999999999993676 ) ;
#196 = FACE_OUTER_BOUND ( 'NONE', #237, .T. ) ;
#197 = AXIS2_PLACEMENT_3D ( 'NONE', #141, #226, #211 ) ;
#198 = APPROVAL_PERSON_ORGANIZATION ( #15, #238, #243 ) ;
#199 = FACE_OUTER_BOUND ( 'NONE', #39, .T. ) ;
#200 = CARTESIAN_POINT ( 'NONE',  ( -2.427628508610744467E-30, 3.024059892324147736, -6.953004392728945751E-16 ) ) ;
#201 = LOCAL_TIME ( 7, 52, 49.00000000000000000, #104 ) ;
#202 = ORIENTED_EDGE ( 'NONE', *, *, #51, .F. ) ;
#203 = EDGE_LOOP ( 'NONE', ( #177 ) ) ;
#204 = ADVANCED_FACE ( 'NONE', ( #196, #4 ), #20, .T. ) ;
#205 = PERSON_AND_ORGANIZATION_ROLE ( 'creator' ) ;
#206 = PERSON_AND_ORGANIZATION ( #152, #212 ) ;
#207 = DATE_AND_TIME ( #185, #201 ) ;
#208 = CARTESIAN_POINT ( 'NONE',  ( 6.281823795492844412E-14, 2.999999999999988010, 17.99185842870425489 ) ) ;
#209 = CARTESIAN_POINT ( 'NONE',  ( 0.0000000000000000000, 0.0000000000000000000, 0.0000000000000000000 ) ) ;
#210 = CARTESIAN_POINT ( 'NONE',  ( 1.396592535537253145E-15, 3.254999999999997673, 0.3999999999999999112 ) ) ;
#211 = DIRECTION ( 'NONE',  ( 0.0000000000000000000, 1.000000000000000000, 0.0000000000000000000 ) ) ;
#212 = ORGANIZATION ( 'UNSPECIFIED', 'UNSPECIFIED', '' ) ;
#213 = CARTESIAN_POINT ( 'NONE',  ( 0.0000000000000000000, 0.0000000000000000000, 0.0000000000000000000 ) ) ;
#214 = ADVANCED_FACE ( 'NONE', ( #56, #133 ), #63, .T. ) ;
#215 = ORIENTED_EDGE ( 'NONE', *, *, #67, .T. ) ;
#216 = CARTESIAN_POINT ( 'NONE',  ( 1.396592535537258272E-15, 1.839382721321759054E-16, 0.4000000000000014100 ) ) ;
#217 = CARTESIAN_POINT ( 'NONE',  ( 3.505447264198505636E-13, -1.034765919200348261E-14, 100.4000000000000057 ) ) ;
#218 = DIRECTION ( 'NONE',  ( -1.597545575989413417E-30, 1.000000000000000000, -4.663235150475290772E-16 ) ) ;
#219 = ADVANCED_FACE ( 'NONE', ( #193 ), #18, .T. ) ;
#220 = CIRCLE ( 'NONE', #95, 2.399999999999996358 ) ;
#221 = DESIGN_CONTEXT ( 'detailed design', #163, 'design' ) ;
#222 = ORIENTED_EDGE ( 'NONE', *, *, #194, .F. ) ;
#223 = CLOSED_SHELL ( 'NONE', ( #219, #40, #34, #120 ) ) ;
#224 = FACE_OUTER_BOUND ( 'NONE', #162, .T. ) ;
#225 = APPROVAL_ROLE ( '' ) ;
#226 = DIRECTION ( 'NONE',  ( -3.491481338843133355E-15, 1.030643345817079849E-16, -1.000000000000000000 ) ) ;
#227 = VERTEX_POINT ( 'NONE', #49 ) ;
#228 = PERSON_AND_ORGANIZATION ( #152, #212 ) ;
#229 = PLANE ( 'NONE',  #158 ) ;
#230 = ADVANCED_FACE ( 'NONE', ( #146 ), #229, .T. ) ;
#231 = LOCAL_TIME ( 7, 52, 49.00000000000000000, #187 ) ;
#232 = DIRECTION ( 'NONE',  ( 0.0000000000000000000, 1.000000000000000000, 0.0000000000000000000 ) ) ;
#233 = ORIENTED_EDGE ( 'NONE', *, *, #153, .T. ) ;
#234 = DIRECTION ( 'NONE',  ( -3.491481338843133355E-15, 1.030643345817079849E-16, -1.000000000000000000 ) ) ;
#235 = EDGE_LOOP ( 'NONE', ( #80 ) ) ;
#236 = AXIS2_PLACEMENT_3D ( 'NONE', #92, #179, #74 ) ;
#237 = EDGE_LOOP ( 'NONE', ( #150 ) ) ;
#238 = APPROVAL ( #88, 'UNSPECIFIED' ) ;
#239 = DATE_AND_TIME ( #64, #168 ) ;
#240 = CIRCLE ( 'NONE', #71, 2.999999999999989786 ) ;
#241 = DATE_AND_TIME ( #26, #91 ) ;
#242 = CARTESIAN_POINT ( 'NONE',  ( 0.0000000000000000000, 3.024059892324147736, 0.0000000000000000000 ) ) ;
#243 = APPROVAL_ROLE ( '' ) ;
ENDSEC;
END-ISO-10303-21;
