ISO-10303-21;
HEADER;
FILE_DESCRIPTION (( 'STEP AP203' ),
    '1' );
FILE_NAME ('3417.step',
    '2021-12-06T12:58:52',
    ( '' ),
    ( '' ),
    'SwSTEP 2.0',
    'SolidWorks 2019',
    '' );
FILE_SCHEMA (( 'CONFIG_CONTROL_DESIGN' ));
ENDSEC;

DATA;
#1 = COORDINATED_UNIVERSAL_TIME_OFFSET ( 1, 0, .AHEAD. ) ;
#2 = COORDINATED_UNIVERSAL_TIME_OFFSET ( 1, 0, .AHEAD. ) ;
#3 = CARTESIAN_POINT ( 'NONE',  ( 4.538925740496073362E-15, 15.00000000000000000, 1.300000000000000044 ) ) ;
#4 = APPROVAL ( #100, 'UNSPECIFIED' ) ;
#5 = ORIENTED_EDGE ( 'NONE', *, *, #152, .T. ) ;
#6 = DIRECTION ( 'NONE',  ( -3.491481338843133355E-15, -1.640341885751371082E-16, -1.000000000000000000 ) ) ;
#7 = PRODUCT ( '3417', '3417', '', ( #16 ) ) ;
#8 = ORIENTED_EDGE ( 'NONE', *, *, #120, .T. ) ;
#9 = CYLINDRICAL_SURFACE ( 'NONE', #86, 15.00000000000000000 ) ;
#10 = CIRCLE ( 'NONE', #42, 4.000000000000000000 ) ;
#11 = CC_DESIGN_DATE_AND_TIME_ASSIGNMENT ( #24, #61, ( #71 ) ) ;
#12 = DIRECTION ( 'NONE',  ( 3.491481338843133355E-15, 1.640341885751371082E-16, 1.000000000000000000 ) ) ;
#13 = PERSON_AND_ORGANIZATION_ROLE ( 'classification_officer' ) ;
#14 = CARTESIAN_POINT ( 'NONE',  ( 0.0000000000000000000, 15.00000000000000000, 0.0000000000000000000 ) ) ;
#15 = CC_DESIGN_APPROVAL ( #4, ( #58 ) ) ;
#16 = MECHANICAL_CONTEXT ( 'NONE', #142, 'mechanical' ) ;
#17 = EDGE_LOOP ( 'NONE', ( #54 ) ) ;
#18 = CIRCLE ( 'NONE', #131, 15.00000000000000000 ) ;
#19 = ORGANIZATION ( 'UNSPECIFIED', 'UNSPECIFIED', '' ) ;
#20 = PERSON_AND_ORGANIZATION ( #60, #19 ) ;
#21 = COORDINATED_UNIVERSAL_TIME_OFFSET ( 1, 0, .AHEAD. ) ;
#22 = APPLICATION_CONTEXT ( 'configuration controlled 3d designs of mechanical parts and assemblies' ) ;
#23 = CC_DESIGN_DATE_AND_TIME_ASSIGNMENT ( #141, #49, ( #58 ) ) ;
#24 = DATE_AND_TIME ( #34, #147 ) ;
#25 = FACE_BOUND ( 'NONE', #82, .T. ) ;
#26 = DIRECTION ( 'NONE',  ( -3.491481338843133355E-15, -1.640341885751371082E-16, -1.000000000000000000 ) ) ;
#27 = DIRECTION ( 'NONE',  ( 0.0000000000000000000, 0.0000000000000000000, 1.000000000000000000 ) ) ;
#28 = DIRECTION ( 'NONE',  ( -5.727223083423667413E-31, 1.000000000000000000, -1.640341885751371329E-16 ) ) ;
#29 = UNCERTAINTY_MEASURE_WITH_UNIT (LENGTH_MEASURE( 1.000000000000000082E-05 ), #123, 'distance_accuracy_value', 'NONE');
#30 = CC_DESIGN_SECURITY_CLASSIFICATION ( #58, ( #48 ) ) ;
#31 = ADVANCED_FACE ( 'NONE', ( #107, #41 ), #109, .T. ) ;
#32 = APPROVAL_DATE_TIME ( #59, #153 ) ;
#33 = CALENDAR_DATE ( 2021, 6, 12 ) ;
#34 = CALENDAR_DATE ( 2021, 6, 12 ) ;
#35 = PERSON_AND_ORGANIZATION_ROLE ( 'creator' ) ;
#36 = AXIS2_PLACEMENT_3D ( 'NONE', #119, #79, #124 ) ;
#37 = SHAPE_DEFINITION_REPRESENTATION ( #149, #166 ) ;
#38 = CARTESIAN_POINT ( 'NONE',  ( 0.0000000000000000000, 4.000000000000000000, 0.0000000000000000000 ) ) ;
#39 = CC_DESIGN_PERSON_AND_ORGANIZATION_ASSIGNMENT ( #77, #155, ( #71 ) ) ;
#40 = DIRECTION ( 'NONE',  ( 5.727223083423667413E-31, -1.000000000000000000, 1.640341885751371082E-16 ) ) ;
#41 = FACE_BOUND ( 'NONE', #146, .T. ) ;
#42 = AXIS2_PLACEMENT_3D ( 'NONE', #108, #6, #145 ) ;
#43 = DIRECTION ( 'NONE',  ( -3.491481338843133355E-15, -1.640341885751371082E-16, -1.000000000000000000 ) ) ;
#44 = DIRECTION ( 'NONE',  ( -5.727223083423667413E-31, 1.000000000000000000, -1.640341885751370836E-16 ) ) ;
#45 = FACE_OUTER_BOUND ( 'NONE', #67, .T. ) ;
#46 = APPROVAL_PERSON_ORGANIZATION ( #63, #91, #117 ) ;
#47 = APPROVAL_STATUS ( 'not_yet_approved' ) ;
#48 = PRODUCT_DEFINITION_FORMATION_WITH_SPECIFIED_SOURCE ( 'ANY', '', #7, .NOT_KNOWN. ) ;
#49 = DATE_TIME_ROLE ( 'classification_date' ) ;
#50 = SECURITY_CLASSIFICATION_LEVEL ( 'unclassified' ) ;
#51 = COORDINATED_UNIVERSAL_TIME_OFFSET ( 1, 0, .AHEAD. ) ;
#52 = DIRECTION ( 'NONE',  ( -3.491481338843133355E-15, -1.640341885751371082E-16, -1.000000000000000000 ) ) ;
#53 = CARTESIAN_POINT ( 'NONE',  ( 8.590834625135501295E-30, 4.036082253225545312E-31, 2.460512828627056327E-15 ) ) ;
#54 = ORIENTED_EDGE ( 'NONE', *, *, #98, .F. ) ;
#55 =( NAMED_UNIT ( * ) SI_UNIT ( $, .STERADIAN. ) SOLID_ANGLE_UNIT ( ) );
#56 = CARTESIAN_POINT ( 'NONE',  ( 0.0000000000000000000, 0.0000000000000000000, 0.0000000000000000000 ) ) ;
#57 = ORIENTED_EDGE ( 'NONE', *, *, #152, .F. ) ;
#58 = SECURITY_CLASSIFICATION ( '', '', #50 ) ;
#59 = DATE_AND_TIME ( #75, #128 ) ;
#60 = PERSON ( 'UNSPECIFIED', 'UNSPECIFIED', 'UNSPECIFIED', ('UNSPECIFIED'), ('UNSPECIFIED'), ('UNSPECIFIED') ) ;
#61 = DATE_TIME_ROLE ( 'creation_date' ) ;
#62 = CARTESIAN_POINT ( 'NONE',  ( 0.0000000000000000000, 0.0000000000000000000, 0.0000000000000000000 ) ) ;
#63 = PERSON_AND_ORGANIZATION ( #60, #19 ) ;
#64 = CARTESIAN_POINT ( 'NONE',  ( 4.538925740496073362E-15, 4.000000000000000000, 1.300000000000000044 ) ) ;
#65 = MANIFOLD_SOLID_BREP ( 'Corps-Déplacer/Copier1', #93 ) ;
#66 = AXIS2_PLACEMENT_3D ( 'NONE', #53, #26, #44 ) ;
#67 = EDGE_LOOP ( 'NONE', ( #80 ) ) ;
#68 = ORIENTED_EDGE ( 'NONE', *, *, #140, .T. ) ;
#69 = VERTEX_POINT ( 'NONE', #14 ) ;
#70 = PLANE ( 'NONE',  #89 ) ;
#71 = PRODUCT_DEFINITION ( 'UNKNOWN', '', #48, #99 ) ;
#72 = AXIS2_PLACEMENT_3D ( 'NONE', #161, #43, #163 ) ;
#73 = PRODUCT_RELATED_PRODUCT_CATEGORY ( 'detail', '', ( #7 ) ) ;
#74 = AXIS2_PLACEMENT_3D ( 'NONE', #56, #27, #83 ) ;
#75 = CALENDAR_DATE ( 2021, 6, 12 ) ;
#76 = PERSON_AND_ORGANIZATION ( #60, #19 ) ;
#77 = PERSON_AND_ORGANIZATION ( #60, #19 ) ;
#78 = FACE_OUTER_BOUND ( 'NONE', #85, .T. ) ;
#79 = DIRECTION ( 'NONE',  ( -3.491481338843133355E-15, -1.640341885751371082E-16, -1.000000000000000000 ) ) ;
#80 = ORIENTED_EDGE ( 'NONE', *, *, #98, .T. ) ;
#81 = ADVANCED_FACE ( 'NONE', ( #45, #78 ), #9, .T. ) ;
#82 = EDGE_LOOP ( 'NONE', ( #68 ) ) ;
#83 = DIRECTION ( 'NONE',  ( 1.000000000000000000, 0.0000000000000000000, 0.0000000000000000000 ) ) ;
#84 = CARTESIAN_POINT ( 'NONE',  ( 4.538925740496082039E-15, 2.132444451476786351E-16, 1.300000000000002265 ) ) ;
#85 = EDGE_LOOP ( 'NONE', ( #136 ) ) ;
#86 = AXIS2_PLACEMENT_3D ( 'NONE', #62, #118, #144 ) ;
#87 = LOCAL_TIME ( 13, 58, 52.00000000000000000, #2 ) ;
#88 = APPROVAL_DATE_TIME ( #167, #4 ) ;
#89 = AXIS2_PLACEMENT_3D ( 'NONE', #122, #12, #40 ) ;
#90 = LOCAL_TIME ( 13, 58, 52.00000000000000000, #51 ) ;
#91 = APPROVAL ( #47, 'UNSPECIFIED' ) ;
#92 = CC_DESIGN_PERSON_AND_ORGANIZATION_ASSIGNMENT ( #156, #13, ( #58 ) ) ;
#93 = CLOSED_SHELL ( 'NONE', ( #31, #81, #112, #165 ) ) ;
#94 = VERTEX_POINT ( 'NONE', #3 ) ;
#95 = CYLINDRICAL_SURFACE ( 'NONE', #157, 4.000000000000000000 ) ;
#96 =( NAMED_UNIT ( * ) PLANE_ANGLE_UNIT ( ) SI_UNIT ( $, .RADIAN. ) );
#97 = DIRECTION ( 'NONE',  ( -3.491481338843133355E-15, -1.640341885751371082E-16, -1.000000000000000000 ) ) ;
#98 = EDGE_CURVE ( 'NONE', #94, #94, #18, .T. ) ;
#99 = DESIGN_CONTEXT ( 'detailed design', #22, 'design' ) ;
#100 = APPROVAL_STATUS ( 'not_yet_approved' ) ;
#101 = PERSON_AND_ORGANIZATION_ROLE ( 'design_owner' ) ;
#102 = APPLICATION_PROTOCOL_DEFINITION ( 'international standard', 'config_control_design', 1994, #22 ) ;
#103 = APPROVAL_ROLE ( '' ) ;
#104 = CALENDAR_DATE ( 2021, 6, 12 ) ;
#105 = CIRCLE ( 'NONE', #36, 4.000000000000000000 ) ;
#106 = VERTEX_POINT ( 'NONE', #64 ) ;
#107 = FACE_OUTER_BOUND ( 'NONE', #110, .T. ) ;
#108 = CARTESIAN_POINT ( 'NONE',  ( 2.290889233369466965E-30, 1.076288600860145709E-31, 6.561367543005485315E-16 ) ) ;
#109 = PLANE ( 'NONE',  #72 ) ;
#110 = EDGE_LOOP ( 'NONE', ( #8 ) ) ;
#111 = APPROVAL_PERSON_ORGANIZATION ( #20, #153, #103 ) ;
#112 = ADVANCED_FACE ( 'NONE', ( #25, #134 ), #70, .T. ) ;
#113 = APPROVAL_ROLE ( '' ) ;
#114 = PERSON_AND_ORGANIZATION ( #60, #19 ) ;
#115 = PERSON_AND_ORGANIZATION ( #60, #19 ) ;
#116 = APPROVAL_DATE_TIME ( #132, #91 ) ;
#117 = APPROVAL_ROLE ( '' ) ;
#118 = DIRECTION ( 'NONE',  ( -3.491481338843133355E-15, -1.640341885751371082E-16, -1.000000000000000000 ) ) ;
#119 = CARTESIAN_POINT ( 'NONE',  ( 4.538925740496075728E-15, 2.132444451476783393E-16, 1.300000000000000488 ) ) ;
#120 = EDGE_CURVE ( 'NONE', #69, #69, #143, .T. ) ;
#121 = CC_DESIGN_APPROVAL ( #153, ( #71 ) ) ;
#122 = CARTESIAN_POINT ( 'NONE',  ( 4.538925740496076517E-15, 4.000000000000000000, 1.300000000000000711 ) ) ;
#123 =( LENGTH_UNIT ( ) NAMED_UNIT ( * ) SI_UNIT ( .MILLI., .METRE. ) );
#124 = DIRECTION ( 'NONE',  ( -5.777789833161707559E-31, 1.000000000000000000, -1.626303258728256651E-16 ) ) ;
#125 = EDGE_LOOP ( 'NONE', ( #159 ) ) ;
#126 = PERSON_AND_ORGANIZATION ( #60, #19 ) ;
#127 = EDGE_LOOP ( 'NONE', ( #5 ) ) ;
#128 = LOCAL_TIME ( 13, 58, 52.00000000000000000, #21 ) ;
#129 = CC_DESIGN_PERSON_AND_ORGANIZATION_ASSIGNMENT ( #114, #169, ( #48 ) ) ;
#130 = CC_DESIGN_PERSON_AND_ORGANIZATION_ASSIGNMENT ( #126, #101, ( #7 ) ) ;
#131 = AXIS2_PLACEMENT_3D ( 'NONE', #84, #52, #148 ) ;
#132 = DATE_AND_TIME ( #138, #139 ) ;
#133 = CARTESIAN_POINT ( 'NONE',  ( 0.0000000000000000000, 0.0000000000000000000, 0.0000000000000000000 ) ) ;
#134 = FACE_OUTER_BOUND ( 'NONE', #17, .T. ) ;
#135 = APPLICATION_PROTOCOL_DEFINITION ( 'international standard', 'config_control_design', 1994, #142 ) ;
#136 = ORIENTED_EDGE ( 'NONE', *, *, #120, .F. ) ;
#137 = CC_DESIGN_PERSON_AND_ORGANIZATION_ASSIGNMENT ( #115, #35, ( #48 ) ) ;
#138 = CALENDAR_DATE ( 2021, 6, 12 ) ;
#139 = LOCAL_TIME ( 13, 58, 52.00000000000000000, #1 ) ;
#140 = EDGE_CURVE ( 'NONE', #106, #106, #105, .T. ) ;
#141 = DATE_AND_TIME ( #33, #87 ) ;
#142 = APPLICATION_CONTEXT ( 'configuration controlled 3d designs of mechanical parts and assemblies' ) ;
#143 = CIRCLE ( 'NONE', #66, 15.00000000000000000 ) ;
#144 = DIRECTION ( 'NONE',  ( -5.727223083423667413E-31, 1.000000000000000000, -1.640341885751370836E-16 ) ) ;
#145 = DIRECTION ( 'NONE',  ( -5.727223083423667413E-31, 1.000000000000000000, -1.640341885751371329E-16 ) ) ;
#146 = EDGE_LOOP ( 'NONE', ( #57 ) ) ;
#147 = LOCAL_TIME ( 13, 58, 52.00000000000000000, #168 ) ;
#148 = DIRECTION ( 'NONE',  ( -5.649394503535892128E-31, 1.000000000000000000, -1.590163186312073252E-16 ) ) ;
#149 = PRODUCT_DEFINITION_SHAPE ( 'NONE', 'NONE',  #71 ) ;
#150 = FACE_OUTER_BOUND ( 'NONE', #127, .T. ) ;
#151 =( GEOMETRIC_REPRESENTATION_CONTEXT ( 3 ) GLOBAL_UNCERTAINTY_ASSIGNED_CONTEXT ( ( #29 ) ) GLOBAL_UNIT_ASSIGNED_CONTEXT ( ( #123, #96, #55 ) ) REPRESENTATION_CONTEXT ( 'NONE', 'WORKASPACE' ) );
#152 = EDGE_CURVE ( 'NONE', #158, #158, #10, .T. ) ;
#153 = APPROVAL ( #154, 'UNSPECIFIED' ) ;
#154 = APPROVAL_STATUS ( 'not_yet_approved' ) ;
#155 = PERSON_AND_ORGANIZATION_ROLE ( 'creator' ) ;
#156 = PERSON_AND_ORGANIZATION ( #60, #19 ) ;
#157 = AXIS2_PLACEMENT_3D ( 'NONE', #133, #97, #28 ) ;
#158 = VERTEX_POINT ( 'NONE', #38 ) ;
#159 = ORIENTED_EDGE ( 'NONE', *, *, #140, .F. ) ;
#160 = CC_DESIGN_APPROVAL ( #91, ( #48 ) ) ;
#161 = CARTESIAN_POINT ( 'NONE',  ( 3.149972695883016464E-30, 4.000000000000000000, 9.021880371632539473E-16 ) ) ;
#162 = FACE_OUTER_BOUND ( 'NONE', #125, .T. ) ;
#163 = DIRECTION ( 'NONE',  ( -5.727223083423667413E-31, 1.000000000000000000, -1.640341885751371082E-16 ) ) ;
#164 = APPROVAL_PERSON_ORGANIZATION ( #76, #4, #113 ) ;
#165 = ADVANCED_FACE ( 'NONE', ( #150, #162 ), #95, .F. ) ;
#166 = ADVANCED_BREP_SHAPE_REPRESENTATION ( '3417', ( #65, #74 ), #151 ) ;
#167 = DATE_AND_TIME ( #104, #90 ) ;
#168 = COORDINATED_UNIVERSAL_TIME_OFFSET ( 1, 0, .AHEAD. ) ;
#169 = PERSON_AND_ORGANIZATION_ROLE ( 'design_supplier' ) ;
ENDSEC;
END-ISO-10303-21;
