ISO-10303-21;
HEADER;
FILE_DESCRIPTION (( 'STEP AP203' ),
    '1' );
FILE_NAME ('341699.step',
    '2021-11-26T06:52:48',
    ( '' ),
    ( '' ),
    'SwSTEP 2.0',
    'SolidWorks 2019',
    '' );
FILE_SCHEMA (( 'CONFIG_CONTROL_DESIGN' ));
ENDSEC;

DATA;
#1 = MANIFOLD_SOLID_BREP ( 'Corps-Déplacer/Copier1[2]', #152 ) ;
#2 = CC_DESIGN_APPROVAL ( #153, ( #227 ) ) ;
#3 = ADVANCED_FACE ( 'NONE', ( #215 ), #202, .T. ) ;
#4 = CARTESIAN_POINT ( 'NONE',  ( 1.396592535537258272E-15, 1.837992303982880213E-16, 0.4000000000000014100 ) ) ;
#5 = CC_DESIGN_APPROVAL ( #156, ( #53 ) ) ;
#6 = PERSON_AND_ORGANIZATION_ROLE ( 'creator' ) ;
#7 = DIRECTION ( 'NONE',  ( 0.0000000000000000000, 1.000000000000000000, 0.0000000000000000000 ) ) ;
#8 = APPROVAL_STATUS ( 'not_yet_approved' ) ;
#9 = EDGE_LOOP ( 'NONE', ( #200 ) ) ;
#10 = CARTESIAN_POINT ( 'NONE',  ( 0.0000000000000000000, 0.0000000000000000000, 0.0000000000000000000 ) ) ;
#11 = CYLINDRICAL_SURFACE ( 'NONE', #46, 3.249999999999993339 ) ;
#12 = CALENDAR_DATE ( 2021, 26, 11 ) ;
#13 = DIRECTION ( 'NONE',  ( 1.604328957573374811E-30, -1.000000000000000000, 4.594980759957184015E-16 ) ) ;
#14 = COORDINATED_UNIVERSAL_TIME_OFFSET ( 1, 0, .AHEAD. ) ;
#15 = DIRECTION ( 'NONE',  ( 3.491481338843133355E-15, -1.030643345817079849E-16, 1.000000000000000000 ) ) ;
#16 = CC_DESIGN_DATE_AND_TIME_ASSIGNMENT ( #85, #216, ( #53 ) ) ;
#17 = DIRECTION ( 'NONE',  ( -3.598472008923184252E-31, -1.000000000000000000, -1.030643345817079849E-16 ) ) ;
#18 = AXIS2_PLACEMENT_3D ( 'NONE', #173, #235, #127 ) ;
#19 = FACE_OUTER_BOUND ( 'NONE', #140, .T. ) ;
#20 = CIRCLE ( 'NONE', #76, 2.999999999999996003 ) ;
#21 = CC_DESIGN_PERSON_AND_ORGANIZATION_ASSIGNMENT ( #87, #67, ( #135 ) ) ;
#22 = AXIS2_PLACEMENT_3D ( 'NONE', #30, #220, #184 ) ;
#23 = CALENDAR_DATE ( 2021, 26, 11 ) ;
#24 = CARTESIAN_POINT ( 'NONE',  ( 3.526396152231565067E-13, 2.399999999999985700, 101.0000000000000000 ) ) ;
#25 = EDGE_LOOP ( 'NONE', ( #27 ) ) ;
#26 = APPROVAL_PERSON_ORGANIZATION ( #89, #119, #128 ) ;
#27 = ORIENTED_EDGE ( 'NONE', *, *, #125, .T. ) ;
#28 = APPLICATION_CONTEXT ( 'configuration controlled 3d designs of mechanical parts and assemblies' ) ;
#29 = ORIENTED_EDGE ( 'NONE', *, *, #103, .F. ) ;
#30 = CARTESIAN_POINT ( 'NONE',  ( 0.0000000000000000000, 0.0000000000000000000, 0.0000000000000000000 ) ) ;
#31 = CALENDAR_DATE ( 2021, 26, 11 ) ;
#32 = CIRCLE ( 'NONE', #18, 2.399999999999996358 ) ;
#33 = LOCAL_TIME ( 7, 52, 48.00000000000000000, #14 ) ;
#34 = FACE_BOUND ( 'NONE', #107, .T. ) ;
#35 = PERSON_AND_ORGANIZATION ( #232, #80 ) ;
#36 = DIRECTION ( 'NONE',  ( -1.604328957573374811E-30, 1.000000000000000000, -4.594980759957184015E-16 ) ) ;
#37 = PLANE ( 'NONE',  #106 ) ;
#38 = PRODUCT ( '341699', '341699', '', ( #187 ) ) ;
#39 = CONICAL_SURFACE ( 'NONE', #210, 2.999999999999996003, 0.7853981633974453924 ) ;
#40 = DATE_AND_TIME ( #23, #33 ) ;
#41 =( GEOMETRIC_REPRESENTATION_CONTEXT ( 3 ) GLOBAL_UNCERTAINTY_ASSIGNED_CONTEXT ( ( #154 ) ) GLOBAL_UNIT_ASSIGNED_CONTEXT ( ( #234, #109, #93 ) ) REPRESENTATION_CONTEXT ( 'NONE', 'WORKASPACE' ) );
#42 = DIRECTION ( 'NONE',  ( -3.491481338843133355E-15, -4.594980759957184015E-16, -1.000000000000000000 ) ) ;
#43 = APPLICATION_PROTOCOL_DEFINITION ( 'international standard', 'config_control_design', 1994, #150 ) ;
#44 = FACE_OUTER_BOUND ( 'NONE', #47, .T. ) ;
#45 = DATE_AND_TIME ( #168, #144 ) ;
#46 = AXIS2_PLACEMENT_3D ( 'NONE', #240, #71, #73 ) ;
#47 = EDGE_LOOP ( 'NONE', ( #224 ) ) ;
#48 = CARTESIAN_POINT ( 'NONE',  ( 6.281823795492844412E-14, -1.854318916842698141E-15, 17.99185842870425489 ) ) ;
#49 = DIRECTION ( 'NONE',  ( 0.0000000000000000000, 0.0000000000000000000, 1.000000000000000000 ) ) ;
#50 = DIRECTION ( 'NONE',  ( -1.604328957573374811E-30, 1.000000000000000000, -4.594980759957184015E-16 ) ) ;
#51 = APPROVAL_ROLE ( '' ) ;
#52 = CARTESIAN_POINT ( 'NONE',  ( 4.843565209903983702E-30, 6.374397222607271727E-31, 1.387252211838786459E-15 ) ) ;
#53 = PRODUCT_DEFINITION ( 'UNKNOWN', '', #135, #56 ) ;
#54 = EDGE_CURVE ( 'NONE', #102, #102, #230, .T. ) ;
#55 = AXIS2_PLACEMENT_3D ( 'NONE', #95, #212, #177 ) ;
#56 = DESIGN_CONTEXT ( 'detailed design', #150, 'design' ) ;
#57 = EDGE_LOOP ( 'NONE', ( #29 ) ) ;
#58 = DIRECTION ( 'NONE',  ( 0.0000000000000000000, 1.000000000000000000, 0.0000000000000000000 ) ) ;
#59 = CC_DESIGN_PERSON_AND_ORGANIZATION_ASSIGNMENT ( #174, #141, ( #38 ) ) ;
#60 = CC_DESIGN_DATE_AND_TIME_ASSIGNMENT ( #241, #130, ( #227 ) ) ;
#61 = APPROVAL_DATE_TIME ( #40, #153 ) ;
#62 = CARTESIAN_POINT ( 'NONE',  ( 3.505447264198505636E-13, 2.999999999999985789, 100.4000000000000057 ) ) ;
#63 = AXIS2_PLACEMENT_3D ( 'NONE', #52, #221, #92 ) ;
#64 = CARTESIAN_POINT ( 'NONE',  ( -6.842277657836020854E-46, 3.019059892324147398, 0.0000000000000000000 ) ) ;
#65 = EDGE_LOOP ( 'NONE', ( #148 ) ) ;
#66 = FACE_OUTER_BOUND ( 'NONE', #166, .T. ) ;
#67 = PERSON_AND_ORGANIZATION_ROLE ( 'design_supplier' ) ;
#68 = LOCAL_TIME ( 7, 52, 48.00000000000000000, #124 ) ;
#69 = DIRECTION ( 'NONE',  ( 3.491481338843133355E-15, 4.594980759957184015E-16, 1.000000000000000000 ) ) ;
#70 = SECURITY_CLASSIFICATION_LEVEL ( 'unclassified' ) ;
#71 = DIRECTION ( 'NONE',  ( -3.491481338843133355E-15, -4.594980759957184015E-16, -1.000000000000000000 ) ) ;
#72 = COORDINATED_UNIVERSAL_TIME_OFFSET ( 1, 0, .AHEAD. ) ;
#73 = DIRECTION ( 'NONE',  ( -1.604328957573374811E-30, 1.000000000000000000, -4.594980759957184015E-16 ) ) ;
#74 = CC_DESIGN_PERSON_AND_ORGANIZATION_ASSIGNMENT ( #171, #205, ( #227 ) ) ;
#75 = APPROVAL_STATUS ( 'not_yet_approved' ) ;
#76 = AXIS2_PLACEMENT_3D ( 'NONE', #229, #179, #58 ) ;
#77 = CARTESIAN_POINT ( 'NONE',  ( 6.130638218678964147E-14, -1.809690750856747406E-15, 17.55884572681201661 ) ) ;
#78 = ADVANCED_FACE ( 'NONE', ( #112 ), #237, .T. ) ;
#79 = VERTEX_POINT ( 'NONE', #24 ) ;
#80 = ORGANIZATION ( 'UNSPECIFIED', 'UNSPECIFIED', '' ) ;
#81 = CARTESIAN_POINT ( 'NONE',  ( 6.281823795492844412E-14, 2.999999999999988010, 17.99185842870425489 ) ) ;
#82 = DIRECTION ( 'NONE',  ( -1.600003338414012537E-30, 1.000000000000000000, -4.670409358399099892E-16 ) ) ;
#83 = CC_DESIGN_SECURITY_CLASSIFICATION ( #227, ( #135 ) ) ;
#84 = DIRECTION ( 'NONE',  ( -3.491481338843133355E-15, -4.594980759957184015E-16, -1.000000000000000000 ) ) ;
#85 = DATE_AND_TIME ( #12, #243 ) ;
#86 = DIRECTION ( 'NONE',  ( 0.0000000000000000000, 1.000000000000000000, 0.0000000000000000000 ) ) ;
#87 = PERSON_AND_ORGANIZATION ( #232, #80 ) ;
#88 = EDGE_LOOP ( 'NONE', ( #204 ) ) ;
#89 = PERSON_AND_ORGANIZATION ( #232, #80 ) ;
#90 = CARTESIAN_POINT ( 'NONE',  ( 6.130638218678964147E-14, -1.809690750856747406E-15, 17.55884572681201661 ) ) ;
#91 = APPROVAL_DATE_TIME ( #45, #119 ) ;
#92 = DIRECTION ( 'NONE',  ( 1.604328957573374811E-30, -1.000000000000000000, 4.594980759957184015E-16 ) ) ;
#93 =( NAMED_UNIT ( * ) SI_UNIT ( $, .STERADIAN. ) SOLID_ANGLE_UNIT ( ) );
#94 = ADVANCED_BREP_SHAPE_REPRESENTATION ( '341699', ( #172, #1, #201 ), #41 ) ;
#95 = CARTESIAN_POINT ( 'NONE',  ( 6.130638218678964147E-14, 3.249999999999997780, 17.55884572681201661 ) ) ;
#96 = AXIS2_PLACEMENT_3D ( 'NONE', #90, #186, #108 ) ;
#97 = PLANE ( 'NONE',  #55 ) ;
#98 = PRODUCT_DEFINITION_SHAPE ( 'NONE', 'NONE',  #53 ) ;
#99 = CIRCLE ( 'NONE', #155, 3.019059892324147398 ) ;
#100 = ADVANCED_FACE ( 'NONE', ( #44, #34 ), #131, .T. ) ;
#101 = AXIS2_PLACEMENT_3D ( 'NONE', #191, #84, #50 ) ;
#102 = VERTEX_POINT ( 'NONE', #197 ) ;
#103 = EDGE_CURVE ( 'NONE', #158, #158, #195, .T. ) ;
#104 = DIRECTION ( 'NONE',  ( -3.491481338843133355E-15, 1.030643345817079849E-16, -1.000000000000000000 ) ) ;
#105 = CALENDAR_DATE ( 2021, 26, 11 ) ;
#106 = AXIS2_PLACEMENT_3D ( 'NONE', #209, #15, #17 ) ;
#107 = EDGE_LOOP ( 'NONE', ( #132 ) ) ;
#108 = DIRECTION ( 'NONE',  ( 0.0000000000000000000, 1.000000000000000000, 0.0000000000000000000 ) ) ;
#109 =( NAMED_UNIT ( * ) PLANE_ANGLE_UNIT ( ) SI_UNIT ( $, .RADIAN. ) );
#110 = FACE_OUTER_BOUND ( 'NONE', #206, .T. ) ;
#111 = APPLICATION_PROTOCOL_DEFINITION ( 'international standard', 'config_control_design', 1994, #28 ) ;
#112 = FACE_OUTER_BOUND ( 'NONE', #57, .T. ) ;
#113 = APPROVAL_STATUS ( 'not_yet_approved' ) ;
#114 = FACE_BOUND ( 'NONE', #136, .T. ) ;
#115 = DIRECTION ( 'NONE',  ( -3.491481338843133355E-15, 1.030643345817079849E-16, -1.000000000000000000 ) ) ;
#116 = AXIS2_PLACEMENT_3D ( 'NONE', #48, #223, #86 ) ;
#117 = AXIS2_PLACEMENT_3D ( 'NONE', #182, #69, #13 ) ;
#118 = EDGE_CURVE ( 'NONE', #231, #231, #236, .T. ) ;
#119 = APPROVAL ( #8, 'UNSPECIFIED' ) ;
#120 = AXIS2_PLACEMENT_3D ( 'NONE', #126, #164, #7 ) ;
#121 = EDGE_LOOP ( 'NONE', ( #188 ) ) ;
#122 = SHAPE_DEFINITION_REPRESENTATION ( #98, #94 ) ;
#123 = FACE_BOUND ( 'NONE', #25, .T. ) ;
#124 = COORDINATED_UNIVERSAL_TIME_OFFSET ( 1, 0, .AHEAD. ) ;
#125 = EDGE_CURVE ( 'NONE', #79, #79, #32, .T. ) ;
#126 = CARTESIAN_POINT ( 'NONE',  ( 6.130638218678964147E-14, 8.068255828175762944E-15, 17.55884572681201661 ) ) ;
#127 = DIRECTION ( 'NONE',  ( 0.0000000000000000000, 1.000000000000000000, 0.0000000000000000000 ) ) ;
#128 = APPROVAL_ROLE ( '' ) ;
#129 = ORIENTED_EDGE ( 'NONE', *, *, #160, .T. ) ;
#130 = DATE_TIME_ROLE ( 'classification_date' ) ;
#131 = CONICAL_SURFACE ( 'NONE', #63, 3.019059892324147398, 0.5235987755982979275 ) ;
#132 = ORIENTED_EDGE ( 'NONE', *, *, #160, .F. ) ;
#133 = CC_DESIGN_PERSON_AND_ORGANIZATION_ASSIGNMENT ( #143, #238, ( #135 ) ) ;
#134 = FACE_OUTER_BOUND ( 'NONE', #65, .T. ) ;
#135 = PRODUCT_DEFINITION_FORMATION_WITH_SPECIFIED_SOURCE ( 'ANY', '', #38, .NOT_KNOWN. ) ;
#136 = EDGE_LOOP ( 'NONE', ( #211 ) ) ;
#137 = CARTESIAN_POINT ( 'NONE',  ( 1.396592535537253145E-15, 3.249999999999997335, 0.3999999999999999112 ) ) ;
#138 = ADVANCED_FACE ( 'NONE', ( #66, #170 ), #142, .T. ) ;
#139 = CARTESIAN_POINT ( 'NONE',  ( 3.505447264198505636E-13, -1.034765919200348261E-14, 100.4000000000000057 ) ) ;
#140 = EDGE_LOOP ( 'NONE', ( #146 ) ) ;
#141 = PERSON_AND_ORGANIZATION_ROLE ( 'design_owner' ) ;
#142 = CYLINDRICAL_SURFACE ( 'NONE', #22, 2.999999999999993339 ) ;
#143 = PERSON_AND_ORGANIZATION ( #232, #80 ) ;
#144 = LOCAL_TIME ( 7, 52, 48.00000000000000000, #165 ) ;
#145 = ADVANCED_FACE ( 'NONE', ( #110, #203 ), #11, .T. ) ;
#146 = ORIENTED_EDGE ( 'NONE', *, *, #125, .F. ) ;
#147 = DIRECTION ( 'NONE',  ( 1.000000000000000000, 0.0000000000000000000, 0.0000000000000000000 ) ) ;
#148 = ORIENTED_EDGE ( 'NONE', *, *, #54, .F. ) ;
#149 = PERSON_AND_ORGANIZATION ( #232, #80 ) ;
#150 = APPLICATION_CONTEXT ( 'configuration controlled 3d designs of mechanical parts and assemblies' ) ;
#151 = CARTESIAN_POINT ( 'NONE',  ( 4.843565209903983702E-30, 6.374397222607271727E-31, 1.387252211838786459E-15 ) ) ;
#152 = CLOSED_SHELL ( 'NONE', ( #78, #145, #100, #3 ) ) ;
#153 = APPROVAL ( #113, 'UNSPECIFIED' ) ;
#154 = UNCERTAINTY_MEASURE_WITH_UNIT (LENGTH_MEASURE( 1.000000000000000082E-05 ), #234, 'distance_accuracy_value', 'NONE');
#155 = AXIS2_PLACEMENT_3D ( 'NONE', #151, #208, #36 ) ;
#156 = APPROVAL ( #75, 'UNSPECIFIED' ) ;
#157 = ORIENTED_EDGE ( 'NONE', *, *, #213, .T. ) ;
#158 = VERTEX_POINT ( 'NONE', #163 ) ;
#159 = VERTEX_POINT ( 'NONE', #64 ) ;
#160 = EDGE_CURVE ( 'NONE', #159, #159, #99, .T. ) ;
#161 = VERTEX_POINT ( 'NONE', #62 ) ;
#162 = AXIS2_PLACEMENT_3D ( 'NONE', #4, #42, #82 ) ;
#163 = CARTESIAN_POINT ( 'NONE',  ( 6.130638218678964147E-14, 3.249999999999997780, 17.55884572681201661 ) ) ;
#164 = DIRECTION ( 'NONE',  ( -3.491481338843133355E-15, -4.594980759957184015E-16, -1.000000000000000000 ) ) ;
#165 = COORDINATED_UNIVERSAL_TIME_OFFSET ( 1, 0, .AHEAD. ) ;
#166 = EDGE_LOOP ( 'NONE', ( #157 ) ) ;
#167 = EDGE_LOOP ( 'NONE', ( #129 ) ) ;
#168 = CALENDAR_DATE ( 2021, 26, 11 ) ;
#169 = AXIS2_PLACEMENT_3D ( 'NONE', #77, #115, #193 ) ;
#170 = FACE_OUTER_BOUND ( 'NONE', #180, .T. ) ;
#171 = PERSON_AND_ORGANIZATION ( #232, #80 ) ;
#172 = MANIFOLD_SOLID_BREP ( 'Corps-Déplacer/Copier1[1]', #218 ) ;
#173 = CARTESIAN_POINT ( 'NONE',  ( 3.526396152231565067E-13, -1.040949779275250653E-14, 101.0000000000000000 ) ) ;
#174 = PERSON_AND_ORGANIZATION ( #232, #80 ) ;
#175 = ADVANCED_FACE ( 'NONE', ( #114, #134 ), #192, .T. ) ;
#176 = CC_DESIGN_APPROVAL ( #119, ( #135 ) ) ;
#177 = DIRECTION ( 'NONE',  ( 3.598472008923184252E-31, 1.000000000000000000, 1.030643345817079849E-16 ) ) ;
#178 = APPROVAL_PERSON_ORGANIZATION ( #149, #156, #51 ) ;
#179 = DIRECTION ( 'NONE',  ( -3.491481338843133355E-15, 1.030643345817079849E-16, -1.000000000000000000 ) ) ;
#180 = EDGE_LOOP ( 'NONE', ( #242 ) ) ;
#181 = DATE_AND_TIME ( #105, #68 ) ;
#182 = CARTESIAN_POINT ( 'NONE',  ( 6.130638218678964147E-14, 8.068255828175762944E-15, 17.55884572681201661 ) ) ;
#183 = APPROVAL_DATE_TIME ( #181, #156 ) ;
#184 = DIRECTION ( 'NONE',  ( 3.598472008923184252E-31, 1.000000000000000000, 1.030643345817079726E-16 ) ) ;
#185 = COORDINATED_UNIVERSAL_TIME_OFFSET ( 1, 0, .AHEAD. ) ;
#186 = DIRECTION ( 'NONE',  ( -3.491481338843133355E-15, 1.030643345817079849E-16, -1.000000000000000000 ) ) ;
#187 = MECHANICAL_CONTEXT ( 'NONE', #28, 'mechanical' ) ;
#188 = ORIENTED_EDGE ( 'NONE', *, *, #213, .F. ) ;
#189 = APPROVAL_ROLE ( '' ) ;
#190 = PRODUCT_RELATED_PRODUCT_CATEGORY ( 'detail', '', ( #38 ) ) ;
#191 = CARTESIAN_POINT ( 'NONE',  ( -2.421782604951991851E-30, 3.019059892324147398, -6.936261059193932295E-16 ) ) ;
#192 = CONICAL_SURFACE ( 'NONE', #169, 3.249999999999999556, 0.5235987755982963732 ) ;
#193 = DIRECTION ( 'NONE',  ( 0.0000000000000000000, 1.000000000000000000, 0.0000000000000000000 ) ) ;
#194 = ADVANCED_FACE ( 'NONE', ( #19 ), #37, .T. ) ;
#195 = CIRCLE ( 'NONE', #120, 3.249999999999989342 ) ;
#196 = APPROVAL_PERSON_ORGANIZATION ( #35, #153, #189 ) ;
#197 = CARTESIAN_POINT ( 'NONE',  ( 6.130638218678964147E-14, 3.249999999999997780, 17.55884572681201661 ) ) ;
#198 = CC_DESIGN_PERSON_AND_ORGANIZATION_ASSIGNMENT ( #222, #6, ( #53 ) ) ;
#199 = DIRECTION ( 'NONE',  ( 0.0000000000000000000, 1.000000000000000000, 0.0000000000000000000 ) ) ;
#200 = ORIENTED_EDGE ( 'NONE', *, *, #217, .F. ) ;
#201 = AXIS2_PLACEMENT_3D ( 'NONE', #10, #49, #147 ) ;
#202 = PLANE ( 'NONE',  #101 ) ;
#203 = FACE_OUTER_BOUND ( 'NONE', #9, .T. ) ;
#204 = ORIENTED_EDGE ( 'NONE', *, *, #54, .T. ) ;
#205 = PERSON_AND_ORGANIZATION_ROLE ( 'classification_officer' ) ;
#206 = EDGE_LOOP ( 'NONE', ( #233 ) ) ;
#207 = ADVANCED_FACE ( 'NONE', ( #225 ), #97, .T. ) ;
#208 = DIRECTION ( 'NONE',  ( -3.491481338843133355E-15, -4.594980759957184015E-16, -1.000000000000000000 ) ) ;
#209 = CARTESIAN_POINT ( 'NONE',  ( 3.526396152231565067E-13, -1.040949779275250653E-14, 101.0000000000000000 ) ) ;
#210 = AXIS2_PLACEMENT_3D ( 'NONE', #139, #104, #199 ) ;
#211 = ORIENTED_EDGE ( 'NONE', *, *, #118, .T. ) ;
#212 = DIRECTION ( 'NONE',  ( -3.491481338843133355E-15, 1.030643345817079849E-16, -1.000000000000000000 ) ) ;
#213 = EDGE_CURVE ( 'NONE', #161, #161, #20, .T. ) ;
#214 = FACE_OUTER_BOUND ( 'NONE', #121, .T. ) ;
#215 = FACE_OUTER_BOUND ( 'NONE', #167, .T. ) ;
#216 = DATE_TIME_ROLE ( 'creation_date' ) ;
#217 = EDGE_CURVE ( 'NONE', #228, #228, #226, .T. ) ;
#218 = CLOSED_SHELL ( 'NONE', ( #194, #239, #138, #175, #207 ) ) ;
#219 = LOCAL_TIME ( 7, 52, 48.00000000000000000, #72 ) ;
#220 = DIRECTION ( 'NONE',  ( -3.491481338843133355E-15, 1.030643345817079849E-16, -1.000000000000000000 ) ) ;
#221 = DIRECTION ( 'NONE',  ( 3.491481338843133355E-15, 4.594980759957184015E-16, 1.000000000000000000 ) ) ;
#222 = PERSON_AND_ORGANIZATION ( #232, #80 ) ;
#223 = DIRECTION ( 'NONE',  ( -3.491481338843133355E-15, 1.030643345817079849E-16, -1.000000000000000000 ) ) ;
#224 = ORIENTED_EDGE ( 'NONE', *, *, #217, .T. ) ;
#225 = FACE_OUTER_BOUND ( 'NONE', #88, .T. ) ;
#226 = CIRCLE ( 'NONE', #162, 3.249999999999997335 ) ;
#227 = SECURITY_CLASSIFICATION ( '', '', #70 ) ;
#228 = VERTEX_POINT ( 'NONE', #137 ) ;
#229 = CARTESIAN_POINT ( 'NONE',  ( 3.505447264198505636E-13, -1.034765919200348261E-14, 100.4000000000000057 ) ) ;
#230 = CIRCLE ( 'NONE', #96, 3.249999999999999556 ) ;
#231 = VERTEX_POINT ( 'NONE', #81 ) ;
#232 = PERSON ( 'UNSPECIFIED', 'UNSPECIFIED', 'UNSPECIFIED', ('UNSPECIFIED'), ('UNSPECIFIED'), ('UNSPECIFIED') ) ;
#233 = ORIENTED_EDGE ( 'NONE', *, *, #103, .T. ) ;
#234 =( LENGTH_UNIT ( ) NAMED_UNIT ( * ) SI_UNIT ( .MILLI., .METRE. ) );
#235 = DIRECTION ( 'NONE',  ( -3.491481338843133355E-15, 1.030643345817079849E-16, -1.000000000000000000 ) ) ;
#236 = CIRCLE ( 'NONE', #116, 2.999999999999989786 ) ;
#237 = PLANE ( 'NONE',  #117 ) ;
#238 = PERSON_AND_ORGANIZATION_ROLE ( 'creator' ) ;
#239 = ADVANCED_FACE ( 'NONE', ( #123, #214 ), #39, .T. ) ;
#240 = CARTESIAN_POINT ( 'NONE',  ( 0.0000000000000000000, 0.0000000000000000000, 0.0000000000000000000 ) ) ;
#241 = DATE_AND_TIME ( #31, #219 ) ;
#242 = ORIENTED_EDGE ( 'NONE', *, *, #118, .F. ) ;
#243 = LOCAL_TIME ( 7, 52, 48.00000000000000000, #185 ) ;
ENDSEC;
END-ISO-10303-21;
