ISO-10303-21;
HEADER;
FILE_DESCRIPTION (( 'STEP AP203' ),
    '1' );
FILE_NAME ('341698.step',
    '2021-11-26T06:52:48',
    ( '' ),
    ( '' ),
    'SwSTEP 2.0',
    'SolidWorks 2019',
    '' );
FILE_SCHEMA (( 'CONFIG_CONTROL_DESIGN' ));
ENDSEC;

DATA;
#1 = PERSON_AND_ORGANIZATION ( #67, #65 ) ;
#2 = CC_DESIGN_DATE_AND_TIME_ASSIGNMENT ( #166, #128, ( #181 ) ) ;
#3 = DIRECTION ( 'NONE',  ( 0.0000000000000000000, 1.000000000000000000, 0.0000000000000000000 ) ) ;
#4 = DIRECTION ( 'NONE',  ( -3.491481338843133355E-15, -4.591508143780409873E-16, -1.000000000000000000 ) ) ;
#5 = DIRECTION ( 'NONE',  ( -3.491481338843133355E-15, 1.030643345817079849E-16, -1.000000000000000000 ) ) ;
#6 = ADVANCED_FACE ( 'NONE', ( #45 ), #28, .T. ) ;
#7 = APPROVAL_STATUS ( 'not_yet_approved' ) ;
#8 = APPROVAL_DATE_TIME ( #44, #74 ) ;
#9 =( NAMED_UNIT ( * ) PLANE_ANGLE_UNIT ( ) SI_UNIT ( $, .RADIAN. ) );
#10 = CARTESIAN_POINT ( 'NONE',  ( 4.831889145721363068E-30, 6.354225100849256272E-31, 1.383908054144823300E-15 ) ) ;
#11 = AXIS2_PLACEMENT_3D ( 'NONE', #26, #101, #40 ) ;
#12 = PERSON_AND_ORGANIZATION ( #67, #65 ) ;
#13 = CARTESIAN_POINT ( 'NONE',  ( 6.281823795492844412E-14, 2.999999999999988010, 17.99185842870425489 ) ) ;
#14 = EDGE_LOOP ( 'NONE', ( #200 ) ) ;
#15 = ORIENTED_EDGE ( 'NONE', *, *, #113, .T. ) ;
#16 = ORIENTED_EDGE ( 'NONE', *, *, #76, .F. ) ;
#17 = APPROVAL_ROLE ( '' ) ;
#18 = CALENDAR_DATE ( 2021, 26, 11 ) ;
#19 = PERSON_AND_ORGANIZATION ( #67, #65 ) ;
#20 = CIRCLE ( 'NONE', #130, 3.014059892324148393 ) ;
#21 = LOCAL_TIME ( 7, 52, 48.00000000000000000, #182 ) ;
#22 = FACE_OUTER_BOUND ( 'NONE', #14, .T. ) ;
#23 = VERTEX_POINT ( 'NONE', #220 ) ;
#24 = ADVANCED_FACE ( 'NONE', ( #143, #224 ), #142, .T. ) ;
#25 = CARTESIAN_POINT ( 'NONE',  ( 6.281823795492844412E-14, -1.854318916842698141E-15, 17.99185842870425489 ) ) ;
#26 = CARTESIAN_POINT ( 'NONE',  ( 6.133661930215241020E-14, 3.244999999999997886, 17.56750598084985526 ) ) ;
#27 = EDGE_LOOP ( 'NONE', ( #219 ) ) ;
#28 = PLANE ( 'NONE',  #51 ) ;
#29 = LOCAL_TIME ( 7, 52, 48.00000000000000000, #115 ) ;
#30 = VERTEX_POINT ( 'NONE', #223 ) ;
#31 = FACE_OUTER_BOUND ( 'NONE', #82, .T. ) ;
#32 = DIRECTION ( 'NONE',  ( -3.491481338843133355E-15, -4.591508143780409873E-16, -1.000000000000000000 ) ) ;
#33 = DATE_AND_TIME ( #63, #21 ) ;
#34 = PRODUCT_RELATED_PRODUCT_CATEGORY ( 'detail', '', ( #161 ) ) ;
#35 = DIRECTION ( 'NONE',  ( -3.491481338843133355E-15, 1.030643345817079849E-16, -1.000000000000000000 ) ) ;
#36 = DIRECTION ( 'NONE',  ( -3.491481338843133355E-15, 1.030643345817079849E-16, -1.000000000000000000 ) ) ;
#37 = FACE_BOUND ( 'NONE', #238, .T. ) ;
#38 = CARTESIAN_POINT ( 'NONE',  ( 3.505447264198505636E-13, 2.999999999999985789, 100.4000000000000057 ) ) ;
#39 = ADVANCED_FACE ( 'NONE', ( #31, #183 ), #86, .T. ) ;
#40 = DIRECTION ( 'NONE',  ( 3.598472008923184252E-31, 1.000000000000000000, 1.030643345817079849E-16 ) ) ;
#41 = DESIGN_CONTEXT ( 'detailed design', #132, 'design' ) ;
#42 = CLOSED_SHELL ( 'NONE', ( #138, #227, #39, #24, #123 ) ) ;
#43 = ORIENTED_EDGE ( 'NONE', *, *, #231, .F. ) ;
#44 = DATE_AND_TIME ( #58, #185 ) ;
#45 = FACE_OUTER_BOUND ( 'NONE', #69, .T. ) ;
#46 = COORDINATED_UNIVERSAL_TIME_OFFSET ( 1, 0, .AHEAD. ) ;
#47 = CARTESIAN_POINT ( 'NONE',  ( 6.133661930215242283E-14, -1.810583314176466018E-15, 17.56750598084985882 ) ) ;
#48 = CC_DESIGN_PERSON_AND_ORGANIZATION_ASSIGNMENT ( #68, #85, ( #181 ) ) ;
#49 = DIRECTION ( 'NONE',  ( 3.598472008923184252E-31, 1.000000000000000000, 1.030643345817079726E-16 ) ) ;
#50 = CIRCLE ( 'NONE', #147, 3.244999999999998330 ) ;
#51 = AXIS2_PLACEMENT_3D ( 'NONE', #104, #127, #202 ) ;
#52 = CONICAL_SURFACE ( 'NONE', #90, 3.014059892324148393, 0.5235987755982979275 ) ;
#53 = CARTESIAN_POINT ( 'NONE',  ( 6.133661930215242283E-14, 3.244999999999997886, 17.56750598084985882 ) ) ;
#54 = FACE_OUTER_BOUND ( 'NONE', #179, .T. ) ;
#55 = DIRECTION ( 'NONE',  ( -1.603116500115557424E-30, 1.000000000000000000, -4.591508143780409873E-16 ) ) ;
#56 = AXIS2_PLACEMENT_3D ( 'NONE', #47, #129, #205 ) ;
#57 = EDGE_LOOP ( 'NONE', ( #15 ) ) ;
#58 = CALENDAR_DATE ( 2021, 26, 11 ) ;
#59 = MANIFOLD_SOLID_BREP ( 'Corps-Déplacer/Copier1[1]', #42 ) ;
#60 = EDGE_LOOP ( 'NONE', ( #43 ) ) ;
#61 = CIRCLE ( 'NONE', #136, 2.399999999999996358 ) ;
#62 = CIRCLE ( 'NONE', #201, 3.244999999999999662 ) ;
#63 = CALENDAR_DATE ( 2021, 26, 11 ) ;
#64 = ORIENTED_EDGE ( 'NONE', *, *, #76, .T. ) ;
#65 = ORGANIZATION ( 'UNSPECIFIED', 'UNSPECIFIED', '' ) ;
#66 = CARTESIAN_POINT ( 'NONE',  ( 3.526396152231565067E-13, 2.399999999999985700, 101.0000000000000000 ) ) ;
#67 = PERSON ( 'UNSPECIFIED', 'UNSPECIFIED', 'UNSPECIFIED', ('UNSPECIFIED'), ('UNSPECIFIED'), ('UNSPECIFIED') ) ;
#68 = PERSON_AND_ORGANIZATION ( #67, #65 ) ;
#69 = EDGE_LOOP ( 'NONE', ( #16 ) ) ;
#70 = APPROVAL_STATUS ( 'not_yet_approved' ) ;
#71 = PLANE ( 'NONE',  #99 ) ;
#72 = AXIS2_PLACEMENT_3D ( 'NONE', #210, #189, #192 ) ;
#73 = AXIS2_PLACEMENT_3D ( 'NONE', #207, #32, #111 ) ;
#74 = APPROVAL ( #7, 'UNSPECIFIED' ) ;
#75 = DIRECTION ( 'NONE',  ( 0.0000000000000000000, 1.000000000000000000, 0.0000000000000000000 ) ) ;
#76 = EDGE_CURVE ( 'NONE', #153, #153, #208, .T. ) ;
#77 = AXIS2_PLACEMENT_3D ( 'NONE', #159, #4, #215 ) ;
#78 = CC_DESIGN_APPROVAL ( #74, ( #181 ) ) ;
#79 = FACE_OUTER_BOUND ( 'NONE', #240, .T. ) ;
#80 = DIRECTION ( 'NONE',  ( -3.491481338843133355E-15, 1.030643345817079849E-16, -1.000000000000000000 ) ) ;
#81 = PLANE ( 'NONE',  #77 ) ;
#82 = EDGE_LOOP ( 'NONE', ( #139 ) ) ;
#83 =( NAMED_UNIT ( * ) SI_UNIT ( $, .STERADIAN. ) SOLID_ANGLE_UNIT ( ) );
#84 = EDGE_LOOP ( 'NONE', ( #164 ) ) ;
#85 = PERSON_AND_ORGANIZATION_ROLE ( 'creator' ) ;
#86 = CYLINDRICAL_SURFACE ( 'NONE', #184, 2.999999999999993339 ) ;
#87 = APPROVAL_PERSON_ORGANIZATION ( #12, #74, #125 ) ;
#88 = PERSON_AND_ORGANIZATION_ROLE ( 'creator' ) ;
#89 = APPROVAL_DATE_TIME ( #33, #156 ) ;
#90 = AXIS2_PLACEMENT_3D ( 'NONE', #96, #170, #98 ) ;
#91 = DATE_TIME_ROLE ( 'classification_date' ) ;
#92 = DATE_AND_TIME ( #18, #29 ) ;
#93 = ADVANCED_FACE ( 'NONE', ( #186 ), #81, .T. ) ;
#94 = CIRCLE ( 'NONE', #237, 2.999999999999996003 ) ;
#95 = LOCAL_TIME ( 7, 52, 48.00000000000000000, #145 ) ;
#96 = CARTESIAN_POINT ( 'NONE',  ( 4.831889145721363068E-30, 6.354225100849256272E-31, 1.383908054144823300E-15 ) ) ;
#97 = DIRECTION ( 'NONE',  ( 0.0000000000000000000, 1.000000000000000000, 0.0000000000000000000 ) ) ;
#98 = DIRECTION ( 'NONE',  ( 1.603116500115557424E-30, -1.000000000000000000, 4.591508143780409873E-16 ) ) ;
#99 = AXIS2_PLACEMENT_3D ( 'NONE', #169, #173, #155 ) ;
#100 = LOCAL_TIME ( 7, 52, 48.00000000000000000, #46 ) ;
#101 = DIRECTION ( 'NONE',  ( -3.491481338843133355E-15, 1.030643345817079849E-16, -1.000000000000000000 ) ) ;
#102 = EDGE_CURVE ( 'NONE', #214, #214, #94, .T. ) ;
#103 = ORIENTED_EDGE ( 'NONE', *, *, #194, .T. ) ;
#104 = CARTESIAN_POINT ( 'NONE',  ( 6.133661930215241020E-14, 8.066134677698317589E-15, 17.56750598084985526 ) ) ;
#105 = ORIENTED_EDGE ( 'NONE', *, *, #150, .F. ) ;
#106 = VERTEX_POINT ( 'NONE', #13 ) ;
#107 = DIRECTION ( 'NONE',  ( -1.602468674836837925E-30, 1.000000000000000000, -4.510548329292547374E-16 ) ) ;
#108 = PERSON_AND_ORGANIZATION_ROLE ( 'classification_officer' ) ;
#109 = ORIENTED_EDGE ( 'NONE', *, *, #231, .T. ) ;
#110 = SECURITY_CLASSIFICATION_LEVEL ( 'unclassified' ) ;
#111 = DIRECTION ( 'NONE',  ( 0.0000000000000000000, 1.000000000000000000, 0.0000000000000000000 ) ) ;
#112 = CC_DESIGN_APPROVAL ( #177, ( #213 ) ) ;
#113 = EDGE_CURVE ( 'NONE', #119, #119, #20, .T. ) ;
#114 = PERSON_AND_ORGANIZATION ( #67, #65 ) ;
#115 = COORDINATED_UNIVERSAL_TIME_OFFSET ( 1, 0, .AHEAD. ) ;
#116 = CC_DESIGN_SECURITY_CLASSIFICATION ( #213, ( #218 ) ) ;
#117 = PERSON_AND_ORGANIZATION ( #67, #65 ) ;
#118 = DIRECTION ( 'NONE',  ( -3.491481338843133355E-15, 1.030643345817079849E-16, -1.000000000000000000 ) ) ;
#119 = VERTEX_POINT ( 'NONE', #195 ) ;
#120 = MECHANICAL_CONTEXT ( 'NONE', #230, 'mechanical' ) ;
#121 = CARTESIAN_POINT ( 'NONE',  ( 0.0000000000000000000, 0.0000000000000000000, 0.0000000000000000000 ) ) ;
#122 = CARTESIAN_POINT ( 'NONE',  ( 1.396592535537258075E-15, 1.836603257512170310E-16, 0.4000000000000013545 ) ) ;
#123 = ADVANCED_FACE ( 'NONE', ( #160 ), #216, .T. ) ;
#124 = UNCERTAINTY_MEASURE_WITH_UNIT (LENGTH_MEASURE( 1.000000000000000082E-05 ), #144, 'distance_accuracy_value', 'NONE');
#125 = APPROVAL_ROLE ( '' ) ;
#126 = EDGE_CURVE ( 'NONE', #23, #23, #50, .T. ) ;
#127 = DIRECTION ( 'NONE',  ( 3.491481338843133355E-15, 4.591508143780409873E-16, 1.000000000000000000 ) ) ;
#128 = DATE_TIME_ROLE ( 'creation_date' ) ;
#129 = DIRECTION ( 'NONE',  ( -3.491481338843133355E-15, 1.030643345817079849E-16, -1.000000000000000000 ) ) ;
#130 = AXIS2_PLACEMENT_3D ( 'NONE', #10, #236, #55 ) ;
#131 = CC_DESIGN_PERSON_AND_ORGANIZATION_ASSIGNMENT ( #148, #209, ( #218 ) ) ;
#132 = APPLICATION_CONTEXT ( 'configuration controlled 3d designs of mechanical parts and assemblies' ) ;
#133 = CALENDAR_DATE ( 2021, 26, 11 ) ;
#134 = ADVANCED_FACE ( 'NONE', ( #162, #37 ), #52, .T. ) ;
#135 = APPLICATION_PROTOCOL_DEFINITION ( 'international standard', 'config_control_design', 1994, #230 ) ;
#136 = AXIS2_PLACEMENT_3D ( 'NONE', #171, #5, #75 ) ;
#137 = DIRECTION ( 'NONE',  ( 0.0000000000000000000, 1.000000000000000000, 0.0000000000000000000 ) ) ;
#138 = ADVANCED_FACE ( 'NONE', ( #197 ), #71, .T. ) ;
#139 = ORIENTED_EDGE ( 'NONE', *, *, #102, .T. ) ;
#140 = ORIENTED_EDGE ( 'NONE', *, *, #194, .F. ) ;
#141 = EDGE_LOOP ( 'NONE', ( #103 ) ) ;
#142 = CONICAL_SURFACE ( 'NONE', #56, 3.244999999999999662, 0.5235987755982957070 ) ;
#143 = FACE_BOUND ( 'NONE', #141, .T. ) ;
#144 =( LENGTH_UNIT ( ) NAMED_UNIT ( * ) SI_UNIT ( .MILLI., .METRE. ) );
#145 = COORDINATED_UNIVERSAL_TIME_OFFSET ( 1, 0, .AHEAD. ) ;
#146 = CARTESIAN_POINT ( 'NONE',  ( 0.0000000000000000000, 0.0000000000000000000, 0.0000000000000000000 ) ) ;
#147 = AXIS2_PLACEMENT_3D ( 'NONE', #122, #190, #107 ) ;
#148 = PERSON_AND_ORGANIZATION ( #67, #65 ) ;
#149 = APPROVAL_PERSON_ORGANIZATION ( #1, #177, #225 ) ;
#150 = EDGE_CURVE ( 'NONE', #30, #30, #62, .T. ) ;
#151 = CALENDAR_DATE ( 2021, 26, 11 ) ;
#152 = CARTESIAN_POINT ( 'NONE',  ( 3.505447264198505636E-13, -1.034765919200348261E-14, 100.4000000000000057 ) ) ;
#153 = VERTEX_POINT ( 'NONE', #53 ) ;
#154 = AXIS2_PLACEMENT_3D ( 'NONE', #121, #157, #217 ) ;
#155 = DIRECTION ( 'NONE',  ( -3.598472008923184252E-31, -1.000000000000000000, -1.030643345817079849E-16 ) ) ;
#156 = APPROVAL ( #70, 'UNSPECIFIED' ) ;
#157 = DIRECTION ( 'NONE',  ( -3.491481338843133355E-15, -4.591508143780409873E-16, -1.000000000000000000 ) ) ;
#158 = FACE_BOUND ( 'NONE', #242, .T. ) ;
#159 = CARTESIAN_POINT ( 'NONE',  ( -2.415944572860681534E-30, 3.014059892324148393, -6.919540270724116500E-16 ) ) ;
#160 = FACE_OUTER_BOUND ( 'NONE', #84, .T. ) ;
#161 = PRODUCT ( '341698', '341698', '', ( #120 ) ) ;
#162 = FACE_OUTER_BOUND ( 'NONE', #27, .T. ) ;
#163 = CC_DESIGN_PERSON_AND_ORGANIZATION_ASSIGNMENT ( #117, #196, ( #161 ) ) ;
#164 = ORIENTED_EDGE ( 'NONE', *, *, #150, .T. ) ;
#165 = APPROVAL_DATE_TIME ( #92, #177 ) ;
#166 = DATE_AND_TIME ( #151, #100 ) ;
#167 = ADVANCED_BREP_SHAPE_REPRESENTATION ( '341698', ( #59, #233, #72 ), #228 ) ;
#168 = CC_DESIGN_PERSON_AND_ORGANIZATION_ASSIGNMENT ( #204, #88, ( #218 ) ) ;
#169 = CARTESIAN_POINT ( 'NONE',  ( 3.526396152231565067E-13, -1.040949779275250653E-14, 101.0000000000000000 ) ) ;
#170 = DIRECTION ( 'NONE',  ( 3.491481338843133355E-15, 4.591508143780409873E-16, 1.000000000000000000 ) ) ;
#171 = CARTESIAN_POINT ( 'NONE',  ( 3.526396152231565067E-13, -1.040949779275250653E-14, 101.0000000000000000 ) ) ;
#172 = ADVANCED_FACE ( 'NONE', ( #79, #54 ), #198, .T. ) ;
#173 = DIRECTION ( 'NONE',  ( 3.491481338843133355E-15, -1.030643345817079849E-16, 1.000000000000000000 ) ) ;
#174 = COORDINATED_UNIVERSAL_TIME_OFFSET ( 1, 0, .AHEAD. ) ;
#175 = VERTEX_POINT ( 'NONE', #66 ) ;
#176 = ORIENTED_EDGE ( 'NONE', *, *, #113, .F. ) ;
#177 = APPROVAL ( #187, 'UNSPECIFIED' ) ;
#178 = PRODUCT_DEFINITION_SHAPE ( 'NONE', 'NONE',  #181 ) ;
#179 = EDGE_LOOP ( 'NONE', ( #222 ) ) ;
#180 = EDGE_LOOP ( 'NONE', ( #140 ) ) ;
#181 = PRODUCT_DEFINITION ( 'UNKNOWN', '', #218, #41 ) ;
#182 = COORDINATED_UNIVERSAL_TIME_OFFSET ( 1, 0, .AHEAD. ) ;
#183 = FACE_OUTER_BOUND ( 'NONE', #180, .T. ) ;
#184 = AXIS2_PLACEMENT_3D ( 'NONE', #146, #226, #49 ) ;
#185 = LOCAL_TIME ( 7, 52, 48.00000000000000000, #174 ) ;
#186 = FACE_OUTER_BOUND ( 'NONE', #57, .T. ) ;
#187 = APPROVAL_STATUS ( 'not_yet_approved' ) ;
#188 = AXIS2_PLACEMENT_3D ( 'NONE', #234, #36, #97 ) ;
#189 = DIRECTION ( 'NONE',  ( 0.0000000000000000000, 0.0000000000000000000, 1.000000000000000000 ) ) ;
#190 = DIRECTION ( 'NONE',  ( -3.491481338843133355E-15, -4.591508143780409873E-16, -1.000000000000000000 ) ) ;
#191 = AXIS2_PLACEMENT_3D ( 'NONE', #25, #80, #137 ) ;
#192 = DIRECTION ( 'NONE',  ( 1.000000000000000000, 0.0000000000000000000, 0.0000000000000000000 ) ) ;
#193 = DIRECTION ( 'NONE',  ( 0.0000000000000000000, 1.000000000000000000, 0.0000000000000000000 ) ) ;
#194 = EDGE_CURVE ( 'NONE', #106, #106, #235, .T. ) ;
#195 = CARTESIAN_POINT ( 'NONE',  ( 0.0000000000000000000, 3.014059892324148393, 0.0000000000000000000 ) ) ;
#196 = PERSON_AND_ORGANIZATION_ROLE ( 'design_owner' ) ;
#197 = FACE_OUTER_BOUND ( 'NONE', #60, .T. ) ;
#198 = CYLINDRICAL_SURFACE ( 'NONE', #154, 3.244999999999993889 ) ;
#199 = CLOSED_SHELL ( 'NONE', ( #6, #172, #134, #93 ) ) ;
#200 = ORIENTED_EDGE ( 'NONE', *, *, #102, .F. ) ;
#201 = AXIS2_PLACEMENT_3D ( 'NONE', #232, #118, #193 ) ;
#202 = DIRECTION ( 'NONE',  ( 1.603116500115557424E-30, -1.000000000000000000, 4.591508143780409873E-16 ) ) ;
#203 = CC_DESIGN_DATE_AND_TIME_ASSIGNMENT ( #206, #91, ( #213 ) ) ;
#204 = PERSON_AND_ORGANIZATION ( #67, #65 ) ;
#205 = DIRECTION ( 'NONE',  ( 0.0000000000000000000, 1.000000000000000000, 0.0000000000000000000 ) ) ;
#206 = DATE_AND_TIME ( #133, #95 ) ;
#207 = CARTESIAN_POINT ( 'NONE',  ( 6.133661930215242283E-14, 8.066134677698319166E-15, 17.56750598084985882 ) ) ;
#208 = CIRCLE ( 'NONE', #73, 3.244999999999989448 ) ;
#209 = PERSON_AND_ORGANIZATION_ROLE ( 'design_supplier' ) ;
#210 = CARTESIAN_POINT ( 'NONE',  ( 0.0000000000000000000, 0.0000000000000000000, 0.0000000000000000000 ) ) ;
#211 = APPLICATION_PROTOCOL_DEFINITION ( 'international standard', 'config_control_design', 1994, #132 ) ;
#212 = APPROVAL_PERSON_ORGANIZATION ( #19, #156, #17 ) ;
#213 = SECURITY_CLASSIFICATION ( '', '', #110 ) ;
#214 = VERTEX_POINT ( 'NONE', #38 ) ;
#215 = DIRECTION ( 'NONE',  ( -1.603116500115557424E-30, 1.000000000000000000, -4.591508143780409873E-16 ) ) ;
#216 = PLANE ( 'NONE',  #11 ) ;
#217 = DIRECTION ( 'NONE',  ( -1.603116500115557424E-30, 1.000000000000000000, -4.591508143780409873E-16 ) ) ;
#218 = PRODUCT_DEFINITION_FORMATION_WITH_SPECIFIED_SOURCE ( 'ANY', '', #161, .NOT_KNOWN. ) ;
#219 = ORIENTED_EDGE ( 'NONE', *, *, #126, .T. ) ;
#220 = CARTESIAN_POINT ( 'NONE',  ( 1.396592535537252948E-15, 3.244999999999998330, 0.3999999999999999112 ) ) ;
#221 = CC_DESIGN_PERSON_AND_ORGANIZATION_ASSIGNMENT ( #114, #108, ( #213 ) ) ;
#222 = ORIENTED_EDGE ( 'NONE', *, *, #126, .F. ) ;
#223 = CARTESIAN_POINT ( 'NONE',  ( 6.133661930215242283E-14, 3.244999999999997886, 17.56750598084985882 ) ) ;
#224 = FACE_OUTER_BOUND ( 'NONE', #239, .T. ) ;
#225 = APPROVAL_ROLE ( '' ) ;
#226 = DIRECTION ( 'NONE',  ( -3.491481338843133355E-15, 1.030643345817079849E-16, -1.000000000000000000 ) ) ;
#227 = ADVANCED_FACE ( 'NONE', ( #158, #22 ), #241, .T. ) ;
#228 =( GEOMETRIC_REPRESENTATION_CONTEXT ( 3 ) GLOBAL_UNCERTAINTY_ASSIGNED_CONTEXT ( ( #124 ) ) GLOBAL_UNIT_ASSIGNED_CONTEXT ( ( #144, #9, #83 ) ) REPRESENTATION_CONTEXT ( 'NONE', 'WORKASPACE' ) );
#229 = SHAPE_DEFINITION_REPRESENTATION ( #178, #167 ) ;
#230 = APPLICATION_CONTEXT ( 'configuration controlled 3d designs of mechanical parts and assemblies' ) ;
#231 = EDGE_CURVE ( 'NONE', #175, #175, #61, .T. ) ;
#232 = CARTESIAN_POINT ( 'NONE',  ( 6.133661930215242283E-14, -1.810583314176466018E-15, 17.56750598084985882 ) ) ;
#233 = MANIFOLD_SOLID_BREP ( 'Corps-Déplacer/Copier1[2]', #199 ) ;
#234 = CARTESIAN_POINT ( 'NONE',  ( 3.505447264198505636E-13, -1.034765919200348261E-14, 100.4000000000000057 ) ) ;
#235 = CIRCLE ( 'NONE', #191, 2.999999999999989786 ) ;
#236 = DIRECTION ( 'NONE',  ( -3.491481338843133355E-15, -4.591508143780409873E-16, -1.000000000000000000 ) ) ;
#237 = AXIS2_PLACEMENT_3D ( 'NONE', #152, #35, #3 ) ;
#238 = EDGE_LOOP ( 'NONE', ( #176 ) ) ;
#239 = EDGE_LOOP ( 'NONE', ( #105 ) ) ;
#240 = EDGE_LOOP ( 'NONE', ( #64 ) ) ;
#241 = CONICAL_SURFACE ( 'NONE', #188, 2.999999999999996003, 0.7853981633974453924 ) ;
#242 = EDGE_LOOP ( 'NONE', ( #109 ) ) ;
#243 = CC_DESIGN_APPROVAL ( #156, ( #218 ) ) ;
ENDSEC;
END-ISO-10303-21;
