ISO-10303-21;
HEADER;
FILE_DESCRIPTION (( 'STEP AP203' ),
    '1' );
FILE_NAME ('341690.step',
    '2021-11-26T06:52:47',
    ( '' ),
    ( '' ),
    'SwSTEP 2.0',
    'SolidWorks 2019',
    '' );
FILE_SCHEMA (( 'CONFIG_CONTROL_DESIGN' ));
ENDSEC;

DATA;
#1 = DIRECTION ( 'NONE',  ( -3.491481338843133355E-15, -4.563849986673343979E-16, -1.000000000000000000 ) ) ;
#2 = AXIS2_PLACEMENT_3D ( 'NONE', #236, #63, #164 ) ;
#3 = PERSON_AND_ORGANIZATION ( #155, #222 ) ;
#4 = MANIFOLD_SOLID_BREP ( 'Corps-Déplacer/Copier1[1]', #92 ) ;
#5 = CALENDAR_DATE ( 2021, 26, 11 ) ;
#6 = ORIENTED_EDGE ( 'NONE', *, *, #135, .F. ) ;
#7 = APPROVAL_DATE_TIME ( #91, #221 ) ;
#8 = CARTESIAN_POINT ( 'NONE',  ( 6.157851622505463579E-14, 8.049165473878716881E-15, 17.63678801315261779 ) ) ;
#9 = EDGE_LOOP ( 'NONE', ( #173 ) ) ;
#10 = DIRECTION ( 'NONE',  ( 1.593459706174946384E-30, -1.000000000000000000, 4.563849986673343979E-16 ) ) ;
#11 = EDGE_LOOP ( 'NONE', ( #193 ) ) ;
#12 = DIRECTION ( 'NONE',  ( -3.491481338843133355E-15, 1.030643345817079849E-16, -1.000000000000000000 ) ) ;
#13 = PLANE ( 'NONE',  #235 ) ;
#14 = DIRECTION ( 'NONE',  ( -3.491481338843133355E-15, 1.030643345817079849E-16, -1.000000000000000000 ) ) ;
#15 = CYLINDRICAL_SURFACE ( 'NONE', #153, 3.204999999999993410 ) ;
#16 = CIRCLE ( 'NONE', #233, 2.399999999999996358 ) ;
#17 = CARTESIAN_POINT ( 'NONE',  ( 3.526396152231565067E-13, -1.040949779275250653E-14, 101.0000000000000000 ) ) ;
#18 = ORIENTED_EDGE ( 'NONE', *, *, #238, .T. ) ;
#19 = LOCAL_TIME ( 7, 52, 47.00000000000000000, #210 ) ;
#20 = DIRECTION ( 'NONE',  ( 1.000000000000000000, 0.0000000000000000000, 0.0000000000000000000 ) ) ;
#21 = CARTESIAN_POINT ( 'NONE',  ( 6.157851622505462317E-14, 3.204999999999997851, 17.63678801315261424 ) ) ;
#22 = ADVANCED_FACE ( 'NONE', ( #62 ), #44, .T. ) ;
#23 = SECURITY_CLASSIFICATION_LEVEL ( 'unclassified' ) ;
#24 = PERSON_AND_ORGANIZATION_ROLE ( 'design_supplier' ) ;
#25 = ADVANCED_FACE ( 'NONE', ( #28, #104 ), #199, .T. ) ;
#26 = ADVANCED_BREP_SHAPE_REPRESENTATION ( '341690', ( #4, #161, #150 ), #97 ) ;
#27 = APPROVAL_PERSON_ORGANIZATION ( #59, #221, #232 ) ;
#28 = FACE_OUTER_BOUND ( 'NONE', #139, .T. ) ;
#29 = APPROVAL_PERSON_ORGANIZATION ( #3, #72, #86 ) ;
#30 = CARTESIAN_POINT ( 'NONE',  ( 1.396592535537258075E-15, 1.825539994669343902E-16, 0.4000000000000013545 ) ) ;
#31 = ADVANCED_FACE ( 'NONE', ( #54 ), #68, .T. ) ;
#32 = APPROVAL_DATE_TIME ( #122, #89 ) ;
#33 = CARTESIAN_POINT ( 'NONE',  ( 6.157851622505462317E-14, -1.817723820734218073E-15, 17.63678801315261424 ) ) ;
#34 = DIRECTION ( 'NONE',  ( -3.491481338843133355E-15, 1.030643345817079849E-16, -1.000000000000000000 ) ) ;
#35 = LOCAL_TIME ( 7, 52, 47.00000000000000000, #240 ) ;
#36 = APPLICATION_CONTEXT ( 'configuration controlled 3d designs of mechanical parts and assemblies' ) ;
#37 = EDGE_CURVE ( 'NONE', #128, #128, #198, .T. ) ;
#38 = DATE_TIME_ROLE ( 'creation_date' ) ;
#39 = APPLICATION_PROTOCOL_DEFINITION ( 'international standard', 'config_control_design', 1994, #112 ) ;
#40 = PRODUCT_DEFINITION ( 'UNKNOWN', '', #129, #69 ) ;
#41 = APPROVAL_ROLE ( '' ) ;
#42 = CIRCLE ( 'NONE', #83, 2.999999999999996003 ) ;
#43 = SHAPE_DEFINITION_REPRESENTATION ( #228, #26 ) ;
#44 = PLANE ( 'NONE',  #120 ) ;
#45 = ORIENTED_EDGE ( 'NONE', *, *, #37, .T. ) ;
#46 = PLANE ( 'NONE',  #108 ) ;
#47 = CARTESIAN_POINT ( 'NONE',  ( 4.739044602169528424E-30, 6.194588068920367779E-31, 1.357316319994928617E-15 ) ) ;
#48 = CONICAL_SURFACE ( 'NONE', #55, 2.999999999999996003, 0.7853981633974453924 ) ;
#49 = FACE_OUTER_BOUND ( 'NONE', #171, .T. ) ;
#50 = AXIS2_PLACEMENT_3D ( 'NONE', #143, #239, #66 ) ;
#51 = PERSON_AND_ORGANIZATION ( #155, #222 ) ;
#52 = ADVANCED_FACE ( 'NONE', ( #85, #99 ), #87, .T. ) ;
#53 = DIRECTION ( 'NONE',  ( -3.598472008923184252E-31, -1.000000000000000000, -1.030643345817079849E-16 ) ) ;
#54 = FACE_OUTER_BOUND ( 'NONE', #203, .T. ) ;
#55 = AXIS2_PLACEMENT_3D ( 'NONE', #162, #34, #138 ) ;
#56 = AXIS2_PLACEMENT_3D ( 'NONE', #30, #100, #140 ) ;
#57 = CARTESIAN_POINT ( 'NONE',  ( 6.157851622505462317E-14, 3.204999999999997851, 17.63678801315261424 ) ) ;
#58 = CARTESIAN_POINT ( 'NONE',  ( 6.281823795492844412E-14, 2.999999999999988010, 17.99185842870425489 ) ) ;
#59 = PERSON_AND_ORGANIZATION ( #155, #222 ) ;
#60 = CALENDAR_DATE ( 2021, 26, 11 ) ;
#61 = EDGE_CURVE ( 'NONE', #230, #230, #157, .T. ) ;
#62 = FACE_OUTER_BOUND ( 'NONE', #117, .T. ) ;
#63 = DIRECTION ( 'NONE',  ( -3.491481338843133355E-15, -4.563849986673343979E-16, -1.000000000000000000 ) ) ;
#64 = EDGE_LOOP ( 'NONE', ( #213 ) ) ;
#65 = DIRECTION ( 'NONE',  ( 0.0000000000000000000, 1.000000000000000000, 0.0000000000000000000 ) ) ;
#66 = DIRECTION ( 'NONE',  ( 0.0000000000000000000, 1.000000000000000000, 0.0000000000000000000 ) ) ;
#67 = CALENDAR_DATE ( 2021, 26, 11 ) ;
#68 = PLANE ( 'NONE',  #134 ) ;
#69 = DESIGN_CONTEXT ( 'detailed design', #36, 'design' ) ;
#70 = PERSON_AND_ORGANIZATION_ROLE ( 'creator' ) ;
#71 = CARTESIAN_POINT ( 'NONE',  ( 1.396592535537252948E-15, 3.204999999999997407, 0.3999999999999999112 ) ) ;
#72 = APPROVAL ( #106, 'UNSPECIFIED' ) ;
#73 = VERTEX_POINT ( 'NONE', #186 ) ;
#74 = SECURITY_CLASSIFICATION ( '', '', #23 ) ;
#75 = APPROVAL_STATUS ( 'not_yet_approved' ) ;
#76 = EDGE_LOOP ( 'NONE', ( #6 ) ) ;
#77 = ORIENTED_EDGE ( 'NONE', *, *, #61, .F. ) ;
#78 = DIRECTION ( 'NONE',  ( 0.0000000000000000000, 1.000000000000000000, 0.0000000000000000000 ) ) ;
#79 = DIRECTION ( 'NONE',  ( -3.491481338843133355E-15, -4.563849986673343979E-16, -1.000000000000000000 ) ) ;
#80 = ADVANCED_FACE ( 'NONE', ( #216, #49 ), #48, .T. ) ;
#81 = EDGE_LOOP ( 'NONE', ( #141 ) ) ;
#82 = DIRECTION ( 'NONE',  ( -3.491481338843133355E-15, 1.030643345817079849E-16, -1.000000000000000000 ) ) ;
#83 = AXIS2_PLACEMENT_3D ( 'NONE', #101, #12, #78 ) ;
#84 = DIRECTION ( 'NONE',  ( 0.0000000000000000000, 1.000000000000000000, 0.0000000000000000000 ) ) ;
#85 = FACE_BOUND ( 'NONE', #127, .T. ) ;
#86 = APPROVAL_ROLE ( '' ) ;
#87 = CONICAL_SURFACE ( 'NONE', #50, 3.204999999999999627, 0.5235987755982942637 ) ;
#88 = PERSON_AND_ORGANIZATION_ROLE ( 'design_owner' ) ;
#89 = APPROVAL ( #160, 'UNSPECIFIED' ) ;
#90 = CARTESIAN_POINT ( 'NONE',  ( 0.0000000000000000000, 0.0000000000000000000, 0.0000000000000000000 ) ) ;
#91 = DATE_AND_TIME ( #5, #19 ) ;
#92 = CLOSED_SHELL ( 'NONE', ( #98, #80, #25, #52, #192 ) ) ;
#93 = DATE_AND_TIME ( #187, #181 ) ;
#94 = APPROVAL_PERSON_ORGANIZATION ( #51, #89, #41 ) ;
#95 = DIRECTION ( 'NONE',  ( -1.593459706174946384E-30, 1.000000000000000000, -4.563849986673343979E-16 ) ) ;
#96 = FACE_BOUND ( 'NONE', #81, .T. ) ;
#97 =( GEOMETRIC_REPRESENTATION_CONTEXT ( 3 ) GLOBAL_UNCERTAINTY_ASSIGNED_CONTEXT ( ( #145 ) ) GLOBAL_UNIT_ASSIGNED_CONTEXT ( ( #184, #223, #183 ) ) REPRESENTATION_CONTEXT ( 'NONE', 'WORKASPACE' ) );
#98 = ADVANCED_FACE ( 'NONE', ( #121 ), #46, .T. ) ;
#99 = FACE_OUTER_BOUND ( 'NONE', #185, .T. ) ;
#100 = DIRECTION ( 'NONE',  ( -3.491481338843133355E-15, -4.563849986673343979E-16, -1.000000000000000000 ) ) ;
#101 = CARTESIAN_POINT ( 'NONE',  ( 3.505447264198505636E-13, -1.034765919200348261E-14, 100.4000000000000057 ) ) ;
#102 = CC_DESIGN_PERSON_AND_ORGANIZATION_ASSIGNMENT ( #189, #151, ( #74 ) ) ;
#103 = LOCAL_TIME ( 7, 52, 47.00000000000000000, #169 ) ;
#104 = FACE_OUTER_BOUND ( 'NONE', #76, .T. ) ;
#105 = EDGE_LOOP ( 'NONE', ( #224 ) ) ;
#106 = APPROVAL_STATUS ( 'not_yet_approved' ) ;
#107 = CARTESIAN_POINT ( 'NONE',  ( 3.505447264198505636E-13, 2.999999999999985789, 100.4000000000000057 ) ) ;
#108 = AXIS2_PLACEMENT_3D ( 'NONE', #17, #116, #53 ) ;
#109 = ORIENTED_EDGE ( 'NONE', *, *, #147, .T. ) ;
#110 = APPROVAL_DATE_TIME ( #93, #72 ) ;
#111 = ORIENTED_EDGE ( 'NONE', *, *, #135, .T. ) ;
#112 = APPLICATION_CONTEXT ( 'configuration controlled 3d designs of mechanical parts and assemblies' ) ;
#113 = CC_DESIGN_DATE_AND_TIME_ASSIGNMENT ( #204, #38, ( #40 ) ) ;
#114 = DIRECTION ( 'NONE',  ( 3.491481338843133355E-15, 4.563849986673343979E-16, 1.000000000000000000 ) ) ;
#115 = AXIS2_PLACEMENT_3D ( 'NONE', #158, #214, #119 ) ;
#116 = DIRECTION ( 'NONE',  ( 3.491481338843133355E-15, -1.030643345817079849E-16, 1.000000000000000000 ) ) ;
#117 = EDGE_LOOP ( 'NONE', ( #77 ) ) ;
#118 = ADVANCED_FACE ( 'NONE', ( #196, #96 ), #229, .T. ) ;
#119 = DIRECTION ( 'NONE',  ( -1.593459706174946384E-30, 1.000000000000000000, -4.563849986673343979E-16 ) ) ;
#120 = AXIS2_PLACEMENT_3D ( 'NONE', #8, #114, #10 ) ;
#121 = FACE_OUTER_BOUND ( 'NONE', #64, .T. ) ;
#122 = DATE_AND_TIME ( #67, #35 ) ;
#123 = DIRECTION ( 'NONE',  ( -1.593459706174946384E-30, 1.000000000000000000, -4.563849986673343979E-16 ) ) ;
#124 = CARTESIAN_POINT ( 'NONE',  ( 0.0000000000000000000, 0.0000000000000000000, 0.0000000000000000000 ) ) ;
#125 = ORIENTED_EDGE ( 'NONE', *, *, #147, .F. ) ;
#126 = CALENDAR_DATE ( 2021, 26, 11 ) ;
#127 = EDGE_LOOP ( 'NONE', ( #111 ) ) ;
#128 = VERTEX_POINT ( 'NONE', #71 ) ;
#129 = PRODUCT_DEFINITION_FORMATION_WITH_SPECIFIED_SOURCE ( 'ANY', '', #190, .NOT_KNOWN. ) ;
#130 = APPLICATION_PROTOCOL_DEFINITION ( 'international standard', 'config_control_design', 1994, #36 ) ;
#131 = PRODUCT_RELATED_PRODUCT_CATEGORY ( 'detail', '', ( #190 ) ) ;
#132 = PERSON_AND_ORGANIZATION_ROLE ( 'creator' ) ;
#133 = AXIS2_PLACEMENT_3D ( 'NONE', #33, #82, #84 ) ;
#134 = AXIS2_PLACEMENT_3D ( 'NONE', #159, #79, #123 ) ;
#135 = EDGE_CURVE ( 'NONE', #200, #200, #194, .T. ) ;
#136 = CC_DESIGN_SECURITY_CLASSIFICATION ( #74, ( #129 ) ) ;
#137 = AXIS2_PLACEMENT_3D ( 'NONE', #241, #218, #65 ) ;
#138 = DIRECTION ( 'NONE',  ( 0.0000000000000000000, 1.000000000000000000, 0.0000000000000000000 ) ) ;
#139 = EDGE_LOOP ( 'NONE', ( #109 ) ) ;
#140 = DIRECTION ( 'NONE',  ( -1.622468283883164257E-30, 1.000000000000000000, -4.566842224197916668E-16 ) ) ;
#141 = ORIENTED_EDGE ( 'NONE', *, *, #165, .F. ) ;
#142 = DIRECTION ( 'NONE',  ( -3.491481338843133355E-15, 1.030643345817079849E-16, -1.000000000000000000 ) ) ;
#143 = CARTESIAN_POINT ( 'NONE',  ( 6.157851622505462317E-14, -1.817723820734218073E-15, 17.63678801315261424 ) ) ;
#144 = DIRECTION ( 'NONE',  ( 3.598472008923184252E-31, 1.000000000000000000, 1.030643345817079726E-16 ) ) ;
#145 = UNCERTAINTY_MEASURE_WITH_UNIT (LENGTH_MEASURE( 1.000000000000000082E-05 ), #184, 'distance_accuracy_value', 'NONE');
#146 = DIRECTION ( 'NONE',  ( -3.491481338843133355E-15, 1.030643345817079849E-16, -1.000000000000000000 ) ) ;
#147 = EDGE_CURVE ( 'NONE', #168, #168, #42, .T. ) ;
#148 = DIRECTION ( 'NONE',  ( 0.0000000000000000000, 1.000000000000000000, 0.0000000000000000000 ) ) ;
#149 = PERSON_AND_ORGANIZATION ( #155, #222 ) ;
#150 = AXIS2_PLACEMENT_3D ( 'NONE', #90, #227, #20 ) ;
#151 = PERSON_AND_ORGANIZATION_ROLE ( 'classification_officer' ) ;
#152 = DATE_AND_TIME ( #60, #103 ) ;
#153 = AXIS2_PLACEMENT_3D ( 'NONE', #124, #1, #95 ) ;
#154 = CC_DESIGN_PERSON_AND_ORGANIZATION_ASSIGNMENT ( #163, #70, ( #40 ) ) ;
#155 = PERSON ( 'UNSPECIFIED', 'UNSPECIFIED', 'UNSPECIFIED', ('UNSPECIFIED'), ('UNSPECIFIED'), ('UNSPECIFIED') ) ;
#156 = CC_DESIGN_APPROVAL ( #72, ( #129 ) ) ;
#157 = CIRCLE ( 'NONE', #2, 3.204999999999989413 ) ;
#158 = CARTESIAN_POINT ( 'NONE',  ( 4.739044602169528424E-30, 6.194588068920367779E-31, 1.357316319994928617E-15 ) ) ;
#159 = CARTESIAN_POINT ( 'NONE',  ( -2.369522301084764212E-30, 2.974059892324147469, -6.786581599974643086E-16 ) ) ;
#160 = APPROVAL_STATUS ( 'not_yet_approved' ) ;
#161 = MANIFOLD_SOLID_BREP ( 'Corps-Déplacer/Copier1[2]', #167 ) ;
#162 = CARTESIAN_POINT ( 'NONE',  ( 3.505447264198505636E-13, -1.034765919200348261E-14, 100.4000000000000057 ) ) ;
#163 = PERSON_AND_ORGANIZATION ( #155, #222 ) ;
#164 = DIRECTION ( 'NONE',  ( 0.0000000000000000000, 1.000000000000000000, 0.0000000000000000000 ) ) ;
#165 = EDGE_CURVE ( 'NONE', #73, #73, #217, .T. ) ;
#166 = COORDINATED_UNIVERSAL_TIME_OFFSET ( 1, 0, .AHEAD. ) ;
#167 = CLOSED_SHELL ( 'NONE', ( #22, #226, #118, #31 ) ) ;
#168 = VERTEX_POINT ( 'NONE', #107 ) ;
#169 = COORDINATED_UNIVERSAL_TIME_OFFSET ( 1, 0, .AHEAD. ) ;
#170 = DATE_TIME_ROLE ( 'classification_date' ) ;
#171 = EDGE_LOOP ( 'NONE', ( #125 ) ) ;
#172 = CC_DESIGN_PERSON_AND_ORGANIZATION_ASSIGNMENT ( #149, #88, ( #190 ) ) ;
#173 = ORIENTED_EDGE ( 'NONE', *, *, #61, .T. ) ;
#174 = CIRCLE ( 'NONE', #133, 3.204999999999999627 ) ;
#175 = DIRECTION ( 'NONE',  ( 3.491481338843133355E-15, 4.563849986673343979E-16, 1.000000000000000000 ) ) ;
#176 = FACE_OUTER_BOUND ( 'NONE', #11, .T. ) ;
#177 = CARTESIAN_POINT ( 'NONE',  ( 6.157851622505463579E-14, 3.204999999999997851, 17.63678801315261779 ) ) ;
#178 = FACE_OUTER_BOUND ( 'NONE', #105, .T. ) ;
#179 = ORIENTED_EDGE ( 'NONE', *, *, #165, .T. ) ;
#180 = CARTESIAN_POINT ( 'NONE',  ( 3.526396152231565067E-13, -1.040949779275250653E-14, 101.0000000000000000 ) ) ;
#181 = LOCAL_TIME ( 7, 52, 47.00000000000000000, #166 ) ;
#182 = CARTESIAN_POINT ( 'NONE',  ( 0.0000000000000000000, 0.0000000000000000000, 0.0000000000000000000 ) ) ;
#183 =( NAMED_UNIT ( * ) SI_UNIT ( $, .STERADIAN. ) SOLID_ANGLE_UNIT ( ) );
#184 =( LENGTH_UNIT ( ) NAMED_UNIT ( * ) SI_UNIT ( .MILLI., .METRE. ) );
#185 = EDGE_LOOP ( 'NONE', ( #188 ) ) ;
#186 = CARTESIAN_POINT ( 'NONE',  ( -6.842277657836020854E-46, 2.974059892324147469, 0.0000000000000000000 ) ) ;
#187 = CALENDAR_DATE ( 2021, 26, 11 ) ;
#188 = ORIENTED_EDGE ( 'NONE', *, *, #215, .F. ) ;
#189 = PERSON_AND_ORGANIZATION ( #155, #222 ) ;
#190 = PRODUCT ( '341690', '341690', '', ( #208 ) ) ;
#191 = AXIS2_PLACEMENT_3D ( 'NONE', #47, #175, #197 ) ;
#192 = ADVANCED_FACE ( 'NONE', ( #176 ), #13, .T. ) ;
#193 = ORIENTED_EDGE ( 'NONE', *, *, #215, .T. ) ;
#194 = CIRCLE ( 'NONE', #137, 2.999999999999989786 ) ;
#195 = CC_DESIGN_PERSON_AND_ORGANIZATION_ASSIGNMENT ( #209, #24, ( #129 ) ) ;
#196 = FACE_OUTER_BOUND ( 'NONE', #211, .T. ) ;
#197 = DIRECTION ( 'NONE',  ( 1.593459706174946735E-30, -1.000000000000000000, 4.563849986673343979E-16 ) ) ;
#198 = CIRCLE ( 'NONE', #56, 3.204999999999997407 ) ;
#199 = CYLINDRICAL_SURFACE ( 'NONE', #237, 2.999999999999993339 ) ;
#200 = VERTEX_POINT ( 'NONE', #58 ) ;
#201 = FACE_OUTER_BOUND ( 'NONE', #9, .T. ) ;
#202 = EDGE_LOOP ( 'NONE', ( #18 ) ) ;
#203 = EDGE_LOOP ( 'NONE', ( #179 ) ) ;
#204 = DATE_AND_TIME ( #126, #243 ) ;
#205 = CARTESIAN_POINT ( 'NONE',  ( 3.526396152231565067E-13, 2.399999999999985700, 101.0000000000000000 ) ) ;
#206 = CC_DESIGN_APPROVAL ( #89, ( #40 ) ) ;
#207 = VERTEX_POINT ( 'NONE', #205 ) ;
#208 = MECHANICAL_CONTEXT ( 'NONE', #112, 'mechanical' ) ;
#209 = PERSON_AND_ORGANIZATION ( #155, #222 ) ;
#210 = COORDINATED_UNIVERSAL_TIME_OFFSET ( 1, 0, .AHEAD. ) ;
#211 = EDGE_LOOP ( 'NONE', ( #45 ) ) ;
#212 = CC_DESIGN_APPROVAL ( #221, ( #74 ) ) ;
#213 = ORIENTED_EDGE ( 'NONE', *, *, #238, .F. ) ;
#214 = DIRECTION ( 'NONE',  ( -3.491481338843133355E-15, -4.563849986673343979E-16, -1.000000000000000000 ) ) ;
#215 = EDGE_CURVE ( 'NONE', #225, #225, #174, .T. ) ;
#216 = FACE_BOUND ( 'NONE', #202, .T. ) ;
#217 = CIRCLE ( 'NONE', #115, 2.974059892324147469 ) ;
#218 = DIRECTION ( 'NONE',  ( -3.491481338843133355E-15, 1.030643345817079849E-16, -1.000000000000000000 ) ) ;
#219 = DIRECTION ( 'NONE',  ( 3.598472008923184252E-31, 1.000000000000000000, 1.030643345817079849E-16 ) ) ;
#220 = CC_DESIGN_DATE_AND_TIME_ASSIGNMENT ( #152, #170, ( #74 ) ) ;
#221 = APPROVAL ( #75, 'UNSPECIFIED' ) ;
#222 = ORGANIZATION ( 'UNSPECIFIED', 'UNSPECIFIED', '' ) ;
#223 =( NAMED_UNIT ( * ) PLANE_ANGLE_UNIT ( ) SI_UNIT ( $, .RADIAN. ) );
#224 = ORIENTED_EDGE ( 'NONE', *, *, #37, .F. ) ;
#225 = VERTEX_POINT ( 'NONE', #57 ) ;
#226 = ADVANCED_FACE ( 'NONE', ( #201, #178 ), #15, .T. ) ;
#227 = DIRECTION ( 'NONE',  ( 0.0000000000000000000, 0.0000000000000000000, 1.000000000000000000 ) ) ;
#228 = PRODUCT_DEFINITION_SHAPE ( 'NONE', 'NONE',  #40 ) ;
#229 = CONICAL_SURFACE ( 'NONE', #191, 2.974059892324147469, 0.5235987755982979275 ) ;
#230 = VERTEX_POINT ( 'NONE', #21 ) ;
#231 = PERSON_AND_ORGANIZATION ( #155, #222 ) ;
#232 = APPROVAL_ROLE ( '' ) ;
#233 = AXIS2_PLACEMENT_3D ( 'NONE', #180, #146, #148 ) ;
#234 = CC_DESIGN_PERSON_AND_ORGANIZATION_ASSIGNMENT ( #231, #132, ( #129 ) ) ;
#235 = AXIS2_PLACEMENT_3D ( 'NONE', #177, #14, #219 ) ;
#236 = CARTESIAN_POINT ( 'NONE',  ( 6.157851622505462317E-14, 8.049165473878715303E-15, 17.63678801315261424 ) ) ;
#237 = AXIS2_PLACEMENT_3D ( 'NONE', #182, #142, #144 ) ;
#238 = EDGE_CURVE ( 'NONE', #207, #207, #16, .T. ) ;
#239 = DIRECTION ( 'NONE',  ( -3.491481338843133355E-15, 1.030643345817079849E-16, -1.000000000000000000 ) ) ;
#240 = COORDINATED_UNIVERSAL_TIME_OFFSET ( 1, 0, .AHEAD. ) ;
#241 = CARTESIAN_POINT ( 'NONE',  ( 6.281823795492844412E-14, -1.854318916842698141E-15, 17.99185842870425489 ) ) ;
#242 = COORDINATED_UNIVERSAL_TIME_OFFSET ( 1, 0, .AHEAD. ) ;
#243 = LOCAL_TIME ( 7, 52, 47.00000000000000000, #242 ) ;
ENDSEC;
END-ISO-10303-21;
