ISO-10303-21;
HEADER;
FILE_DESCRIPTION (( 'STEP AP203' ),
    '1' );
FILE_NAME ('341685.step',
    '2021-11-26T06:52:47',
    ( '' ),
    ( '' ),
    'SwSTEP 2.0',
    'SolidWorks 2019',
    '' );
FILE_SCHEMA (( 'CONFIG_CONTROL_DESIGN' ));
ENDSEC;

DATA;
#1 = APPROVAL_DATE_TIME ( #129, #22 ) ;
#2 = ORIENTED_EDGE ( 'NONE', *, *, #91, .T. ) ;
#3 = EDGE_LOOP ( 'NONE', ( #147 ) ) ;
#4 = CONICAL_SURFACE ( 'NONE', #34, 3.179999999999999716, 0.5235987755982923764 ) ;
#5 = APPROVAL_PERSON_ORGANIZATION ( #94, #22, #161 ) ;
#6 = DIRECTION ( 'NONE',  ( -3.491481338843133355E-15, 1.030643345817079849E-16, -1.000000000000000000 ) ) ;
#7 = DIRECTION ( 'NONE',  ( -3.491481338843133355E-15, -4.546673714518734799E-16, -1.000000000000000000 ) ) ;
#8 = DIRECTION ( 'NONE',  ( 0.0000000000000000000, 1.000000000000000000, 0.0000000000000000000 ) ) ;
#9 = PERSON_AND_ORGANIZATION ( #218, #238 ) ;
#10 = DIRECTION ( 'NONE',  ( -3.491481338843133355E-15, -4.546673714518734799E-16, -1.000000000000000000 ) ) ;
#11 = APPROVAL_ROLE ( '' ) ;
#12 = DATE_AND_TIME ( #48, #204 ) ;
#13 =( GEOMETRIC_REPRESENTATION_CONTEXT ( 3 ) GLOBAL_UNCERTAINTY_ASSIGNED_CONTEXT ( ( #27 ) ) GLOBAL_UNIT_ASSIGNED_CONTEXT ( ( #49, #14, #87 ) ) REPRESENTATION_CONTEXT ( 'NONE', 'WORKASPACE' ) );
#14 =( NAMED_UNIT ( * ) PLANE_ANGLE_UNIT ( ) SI_UNIT ( $, .RADIAN. ) );
#15 = COORDINATED_UNIVERSAL_TIME_OFFSET ( 1, 0, .AHEAD. ) ;
#16 = VERTEX_POINT ( 'NONE', #214 ) ;
#17 = DIRECTION ( 'NONE',  ( 0.0000000000000000000, 1.000000000000000000, 0.0000000000000000000 ) ) ;
#18 = EDGE_LOOP ( 'NONE', ( #93 ) ) ;
#19 = CARTESIAN_POINT ( 'NONE',  ( 3.505447264198505636E-13, -1.034765919200348261E-14, 100.4000000000000057 ) ) ;
#20 = LOCAL_TIME ( 7, 52, 47.00000000000000000, #216 ) ;
#21 = ORIENTED_EDGE ( 'NONE', *, *, #167, .T. ) ;
#22 = APPROVAL ( #220, 'UNSPECIFIED' ) ;
#23 = DIRECTION ( 'NONE',  ( -3.491481338843133355E-15, 1.030643345817079849E-16, -1.000000000000000000 ) ) ;
#24 = VERTEX_POINT ( 'NONE', #100 ) ;
#25 = ADVANCED_FACE ( 'NONE', ( #162 ), #163, .T. ) ;
#26 = DIRECTION ( 'NONE',  ( 3.491481338843133355E-15, -1.030643345817079849E-16, 1.000000000000000000 ) ) ;
#27 = UNCERTAINTY_MEASURE_WITH_UNIT (LENGTH_MEASURE( 1.000000000000000082E-05 ), #49, 'distance_accuracy_value', 'NONE');
#28 = CARTESIAN_POINT ( 'NONE',  ( 0.0000000000000000000, 0.0000000000000000000, 0.0000000000000000000 ) ) ;
#29 = CARTESIAN_POINT ( 'NONE',  ( 3.526396152231565067E-13, 2.399999999999985700, 101.0000000000000000 ) ) ;
#30 = ADVANCED_FACE ( 'NONE', ( #74, #39 ), #97, .T. ) ;
#31 = AXIS2_PLACEMENT_3D ( 'NONE', #44, #155, #103 ) ;
#32 = CARTESIAN_POINT ( 'NONE',  ( 3.505447264198505636E-13, 2.999999999999985789, 100.4000000000000057 ) ) ;
#33 = CIRCLE ( 'NONE', #197, 2.999999999999989786 ) ;
#34 = AXIS2_PLACEMENT_3D ( 'NONE', #101, #193, #169 ) ;
#35 = CARTESIAN_POINT ( 'NONE',  ( 6.281823795492844412E-14, -1.854318916842698141E-15, 17.99185842870425489 ) ) ;
#36 = PERSON_AND_ORGANIZATION ( #218, #238 ) ;
#37 = DIRECTION ( 'NONE',  ( 0.0000000000000000000, 1.000000000000000000, 0.0000000000000000000 ) ) ;
#38 = EDGE_LOOP ( 'NONE', ( #96 ) ) ;
#39 = FACE_BOUND ( 'NONE', #60, .T. ) ;
#40 = EDGE_CURVE ( 'NONE', #211, #211, #33, .T. ) ;
#41 = FACE_BOUND ( 'NONE', #56, .T. ) ;
#42 = FACE_OUTER_BOUND ( 'NONE', #54, .T. ) ;
#43 = ADVANCED_FACE ( 'NONE', ( #219, #222 ), #225, .T. ) ;
#44 = CARTESIAN_POINT ( 'NONE',  ( 3.526396152231565067E-13, -1.040949779275250653E-14, 101.0000000000000000 ) ) ;
#45 = CARTESIAN_POINT ( 'NONE',  ( 3.505447264198505636E-13, -1.034765919200348261E-14, 100.4000000000000057 ) ) ;
#46 = VERTEX_POINT ( 'NONE', #29 ) ;
#47 = CC_DESIGN_APPROVAL ( #194, ( #239 ) ) ;
#48 = CALENDAR_DATE ( 2021, 26, 11 ) ;
#49 =( LENGTH_UNIT ( ) NAMED_UNIT ( * ) SI_UNIT ( .MILLI., .METRE. ) );
#50 = EDGE_CURVE ( 'NONE', #46, #46, #141, .T. ) ;
#51 = PERSON_AND_ORGANIZATION_ROLE ( 'classification_officer' ) ;
#52 = CIRCLE ( 'NONE', #203, 3.179999999999999716 ) ;
#53 = APPROVAL_DATE_TIME ( #183, #99 ) ;
#54 = EDGE_LOOP ( 'NONE', ( #146 ) ) ;
#55 = COORDINATED_UNIVERSAL_TIME_OFFSET ( 1, 0, .AHEAD. ) ;
#56 = EDGE_LOOP ( 'NONE', ( #78 ) ) ;
#57 = APPROVAL_STATUS ( 'not_yet_approved' ) ;
#58 = EDGE_LOOP ( 'NONE', ( #2 ) ) ;
#59 = ADVANCED_FACE ( 'NONE', ( #153 ), #173, .T. ) ;
#60 = EDGE_LOOP ( 'NONE', ( #205 ) ) ;
#61 = DIRECTION ( 'NONE',  ( -3.491481338843133355E-15, -4.546673714518734799E-16, -1.000000000000000000 ) ) ;
#62 = CARTESIAN_POINT ( 'NONE',  ( 6.172970180186849208E-14, -1.822186637332812712E-15, 17.68008928334183594 ) ) ;
#63 = CC_DESIGN_APPROVAL ( #99, ( #221 ) ) ;
#64 = CARTESIAN_POINT ( 'NONE',  ( -2.340761205229672214E-30, 2.949059892324148446, -6.704206547485828668E-16 ) ) ;
#65 = AXIS2_PLACEMENT_3D ( 'NONE', #207, #61, #82 ) ;
#66 = DIRECTION ( 'NONE',  ( -3.491481338843133355E-15, -4.546673714518734799E-16, -1.000000000000000000 ) ) ;
#67 = CC_DESIGN_DATE_AND_TIME_ASSIGNMENT ( #242, #142, ( #239 ) ) ;
#68 = CIRCLE ( 'NONE', #195, 2.999999999999996003 ) ;
#69 = APPROVAL_DATE_TIME ( #12, #194 ) ;
#70 = CLOSED_SHELL ( 'NONE', ( #196, #43, #224, #139, #59 ) ) ;
#71 = CARTESIAN_POINT ( 'NONE',  ( 0.0000000000000000000, 2.949059892324148446, 0.0000000000000000000 ) ) ;
#72 = SECURITY_CLASSIFICATION_LEVEL ( 'unclassified' ) ;
#73 = DATE_AND_TIME ( #240, #77 ) ;
#74 = FACE_OUTER_BOUND ( 'NONE', #58, .T. ) ;
#75 = CALENDAR_DATE ( 2021, 26, 11 ) ;
#76 = EDGE_LOOP ( 'NONE', ( #21 ) ) ;
#77 = LOCAL_TIME ( 7, 52, 47.00000000000000000, #90 ) ;
#78 = ORIENTED_EDGE ( 'NONE', *, *, #40, .T. ) ;
#79 = ADVANCED_BREP_SHAPE_REPRESENTATION ( '341685', ( #230, #140, #138 ), #13 ) ;
#80 = CC_DESIGN_DATE_AND_TIME_ASSIGNMENT ( #73, #88, ( #221 ) ) ;
#81 = CARTESIAN_POINT ( 'NONE',  ( 3.526396152231565067E-13, -1.040949779275250653E-14, 101.0000000000000000 ) ) ;
#82 = DIRECTION ( 'NONE',  ( -1.574659702958118130E-30, 1.000000000000000000, -4.602745071872426438E-16 ) ) ;
#83 = DIRECTION ( 'NONE',  ( -3.598472008923184252E-31, -1.000000000000000000, -1.030643345817079849E-16 ) ) ;
#84 = CYLINDRICAL_SURFACE ( 'NONE', #116, 2.999999999999993339 ) ;
#85 = FACE_OUTER_BOUND ( 'NONE', #18, .T. ) ;
#86 = LOCAL_TIME ( 7, 52, 47.00000000000000000, #55 ) ;
#87 =( NAMED_UNIT ( * ) SI_UNIT ( $, .STERADIAN. ) SOLID_ANGLE_UNIT ( ) );
#88 = DATE_TIME_ROLE ( 'classification_date' ) ;
#89 = AXIS2_PLACEMENT_3D ( 'NONE', #28, #66, #208 ) ;
#90 = COORDINATED_UNIVERSAL_TIME_OFFSET ( 1, 0, .AHEAD. ) ;
#91 = EDGE_CURVE ( 'NONE', #24, #24, #166, .T. ) ;
#92 = ORIENTED_EDGE ( 'NONE', *, *, #125, .F. ) ;
#93 = ORIENTED_EDGE ( 'NONE', *, *, #105, .T. ) ;
#94 = PERSON_AND_ORGANIZATION ( #218, #238 ) ;
#95 = AXIS2_PLACEMENT_3D ( 'NONE', #231, #188, #171 ) ;
#96 = ORIENTED_EDGE ( 'NONE', *, *, #167, .F. ) ;
#97 = CONICAL_SURFACE ( 'NONE', #137, 2.949059892324148446, 0.5235987755982979275 ) ;
#98 = FACE_OUTER_BOUND ( 'NONE', #150, .T. ) ;
#99 = APPROVAL ( #57, 'UNSPECIFIED' ) ;
#100 = CARTESIAN_POINT ( 'NONE',  ( 1.396592535537253145E-15, 3.179999999999998384, 0.3999999999999999112 ) ) ;
#101 = CARTESIAN_POINT ( 'NONE',  ( 6.172970180186849208E-14, -1.822186637332812712E-15, 17.68008928334183594 ) ) ;
#102 = DIRECTION ( 'NONE',  ( -3.491481338843133355E-15, -4.546673714518734799E-16, -1.000000000000000000 ) ) ;
#103 = DIRECTION ( 'NONE',  ( 0.0000000000000000000, 1.000000000000000000, 0.0000000000000000000 ) ) ;
#104 = CALENDAR_DATE ( 2021, 26, 11 ) ;
#105 = EDGE_CURVE ( 'NONE', #170, #170, #234, .T. ) ;
#106 = DIRECTION ( 'NONE',  ( -3.491481338843133355E-15, 1.030643345817079849E-16, -1.000000000000000000 ) ) ;
#107 = PERSON_AND_ORGANIZATION ( #218, #238 ) ;
#108 = ORIENTED_EDGE ( 'NONE', *, *, #50, .F. ) ;
#109 = ADVANCED_FACE ( 'NONE', ( #210 ), #117, .T. ) ;
#110 = ORIENTED_EDGE ( 'NONE', *, *, #91, .F. ) ;
#111 = PERSON_AND_ORGANIZATION_ROLE ( 'design_supplier' ) ;
#112 = PERSON_AND_ORGANIZATION ( #218, #238 ) ;
#113 = PRODUCT_DEFINITION_SHAPE ( 'NONE', 'NONE',  #239 ) ;
#114 = EDGE_LOOP ( 'NONE', ( #108 ) ) ;
#115 = CARTESIAN_POINT ( 'NONE',  ( 0.0000000000000000000, 0.0000000000000000000, 0.0000000000000000000 ) ) ;
#116 = AXIS2_PLACEMENT_3D ( 'NONE', #115, #135, #156 ) ;
#117 = PLANE ( 'NONE',  #123 ) ;
#118 = DIRECTION ( 'NONE',  ( 1.000000000000000000, 0.0000000000000000000, 0.0000000000000000000 ) ) ;
#119 = FACE_OUTER_BOUND ( 'NONE', #114, .T. ) ;
#120 = PLANE ( 'NONE',  #236 ) ;
#121 = PRODUCT_RELATED_PRODUCT_CATEGORY ( 'detail', '', ( #243 ) ) ;
#122 = COORDINATED_UNIVERSAL_TIME_OFFSET ( 1, 0, .AHEAD. ) ;
#123 = AXIS2_PLACEMENT_3D ( 'NONE', #64, #10, #192 ) ;
#124 = VERTEX_POINT ( 'NONE', #71 ) ;
#125 = EDGE_CURVE ( 'NONE', #16, #16, #52, .T. ) ;
#126 = SHAPE_DEFINITION_REPRESENTATION ( #113, #79 ) ;
#127 = CARTESIAN_POINT ( 'NONE',  ( 6.172970180186847946E-14, 8.038559721491468016E-15, 17.68008928334183238 ) ) ;
#128 = LOCAL_TIME ( 7, 52, 47.00000000000000000, #15 ) ;
#129 = DATE_AND_TIME ( #75, #86 ) ;
#130 = DIRECTION ( 'NONE',  ( -3.491481338843133355E-15, 1.030643345817079849E-16, -1.000000000000000000 ) ) ;
#131 = CARTESIAN_POINT ( 'NONE',  ( 0.0000000000000000000, 0.0000000000000000000, 0.0000000000000000000 ) ) ;
#132 = AXIS2_PLACEMENT_3D ( 'NONE', #127, #133, #198 ) ;
#133 = DIRECTION ( 'NONE',  ( 3.491481338843133355E-15, 4.546673714518734799E-16, 1.000000000000000000 ) ) ;
#134 = APPLICATION_PROTOCOL_DEFINITION ( 'international standard', 'config_control_design', 1994, #212 ) ;
#135 = DIRECTION ( 'NONE',  ( -3.491481338843133355E-15, 1.030643345817079849E-16, -1.000000000000000000 ) ) ;
#136 = CARTESIAN_POINT ( 'NONE',  ( 4.681522410459344429E-30, 6.096367937231642457E-31, 1.340841309497165734E-15 ) ) ;
#137 = AXIS2_PLACEMENT_3D ( 'NONE', #202, #182, #187 ) ;
#138 = AXIS2_PLACEMENT_3D ( 'NONE', #131, #145, #118 ) ;
#139 = ADVANCED_FACE ( 'NONE', ( #41, #98 ), #4, .T. ) ;
#140 = MANIFOLD_SOLID_BREP ( 'Corps-Déplacer/Copier1[2]', #181 ) ;
#141 = CIRCLE ( 'NONE', #31, 2.399999999999996358 ) ;
#142 = DATE_TIME_ROLE ( 'creation_date' ) ;
#143 = CIRCLE ( 'NONE', #165, 2.949059892324148446 ) ;
#144 = APPROVAL_ROLE ( '' ) ;
#145 = DIRECTION ( 'NONE',  ( 0.0000000000000000000, 0.0000000000000000000, 1.000000000000000000 ) ) ;
#146 = ORIENTED_EDGE ( 'NONE', *, *, #40, .F. ) ;
#147 = ORIENTED_EDGE ( 'NONE', *, *, #199, .T. ) ;
#148 = PERSON_AND_ORGANIZATION_ROLE ( 'creator' ) ;
#149 = ORIENTED_EDGE ( 'NONE', *, *, #125, .T. ) ;
#150 = EDGE_LOOP ( 'NONE', ( #92 ) ) ;
#151 = CC_DESIGN_PERSON_AND_ORGANIZATION_ASSIGNMENT ( #164, #148, ( #239 ) ) ;
#152 = EDGE_LOOP ( 'NONE', ( #185 ) ) ;
#153 = FACE_OUTER_BOUND ( 'NONE', #180, .T. ) ;
#154 = DIRECTION ( 'NONE',  ( 0.0000000000000000000, 1.000000000000000000, 0.0000000000000000000 ) ) ;
#155 = DIRECTION ( 'NONE',  ( -3.491481338843133355E-15, 1.030643345817079849E-16, -1.000000000000000000 ) ) ;
#156 = DIRECTION ( 'NONE',  ( 3.598472008923184252E-31, 1.000000000000000000, 1.030643345817079726E-16 ) ) ;
#157 = CYLINDRICAL_SURFACE ( 'NONE', #89, 3.179999999999993943 ) ;
#158 = APPLICATION_CONTEXT ( 'configuration controlled 3d designs of mechanical parts and assemblies' ) ;
#159 = ADVANCED_FACE ( 'NONE', ( #85, #191 ), #157, .T. ) ;
#160 = CC_DESIGN_APPROVAL ( #22, ( #184 ) ) ;
#161 = APPROVAL_ROLE ( '' ) ;
#162 = FACE_OUTER_BOUND ( 'NONE', #179, .T. ) ;
#163 = PLANE ( 'NONE',  #132 ) ;
#164 = PERSON_AND_ORGANIZATION ( #218, #238 ) ;
#165 = AXIS2_PLACEMENT_3D ( 'NONE', #136, #102, #228 ) ;
#166 = CIRCLE ( 'NONE', #65, 3.179999999999998384 ) ;
#167 = EDGE_CURVE ( 'NONE', #176, #176, #68, .T. ) ;
#168 = AXIS2_PLACEMENT_3D ( 'NONE', #19, #130, #37 ) ;
#169 = DIRECTION ( 'NONE',  ( 0.0000000000000000000, 1.000000000000000000, 0.0000000000000000000 ) ) ;
#170 = VERTEX_POINT ( 'NONE', #215 ) ;
#171 = DIRECTION ( 'NONE',  ( 3.598472008923184252E-31, 1.000000000000000000, 1.030643345817079849E-16 ) ) ;
#172 = FACE_OUTER_BOUND ( 'NONE', #76, .T. ) ;
#173 = PLANE ( 'NONE',  #95 ) ;
#174 = APPROVAL_STATUS ( 'not_yet_approved' ) ;
#175 = CC_DESIGN_PERSON_AND_ORGANIZATION_ASSIGNMENT ( #223, #111, ( #184 ) ) ;
#176 = VERTEX_POINT ( 'NONE', #32 ) ;
#177 = PERSON_AND_ORGANIZATION ( #218, #238 ) ;
#178 = CC_DESIGN_SECURITY_CLASSIFICATION ( #221, ( #184 ) ) ;
#179 = EDGE_LOOP ( 'NONE', ( #241 ) ) ;
#180 = EDGE_LOOP ( 'NONE', ( #149 ) ) ;
#181 = CLOSED_SHELL ( 'NONE', ( #25, #159, #30, #109 ) ) ;
#182 = DIRECTION ( 'NONE',  ( 3.491481338843133355E-15, 4.546673714518734799E-16, 1.000000000000000000 ) ) ;
#183 = DATE_AND_TIME ( #237, #20 ) ;
#184 = PRODUCT_DEFINITION_FORMATION_WITH_SPECIFIED_SOURCE ( 'ANY', '', #243, .NOT_KNOWN. ) ;
#185 = ORIENTED_EDGE ( 'NONE', *, *, #50, .T. ) ;
#186 = AXIS2_PLACEMENT_3D ( 'NONE', #206, #7, #232 ) ;
#187 = DIRECTION ( 'NONE',  ( 1.587462642805075604E-30, -1.000000000000000000, 4.546673714518734799E-16 ) ) ;
#188 = DIRECTION ( 'NONE',  ( -3.491481338843133355E-15, 1.030643345817079849E-16, -1.000000000000000000 ) ) ;
#189 = MECHANICAL_CONTEXT ( 'NONE', #158, 'mechanical' ) ;
#190 = CARTESIAN_POINT ( 'NONE',  ( 6.281823795492844412E-14, 2.999999999999988010, 17.99185842870425489 ) ) ;
#191 = FACE_OUTER_BOUND ( 'NONE', #226, .T. ) ;
#192 = DIRECTION ( 'NONE',  ( -1.587462642805075604E-30, 1.000000000000000000, -4.546673714518734799E-16 ) ) ;
#193 = DIRECTION ( 'NONE',  ( -3.491481338843133355E-15, 1.030643345817079849E-16, -1.000000000000000000 ) ) ;
#194 = APPROVAL ( #174, 'UNSPECIFIED' ) ;
#195 = AXIS2_PLACEMENT_3D ( 'NONE', #45, #6, #154 ) ;
#196 = ADVANCED_FACE ( 'NONE', ( #119 ), #120, .T. ) ;
#197 = AXIS2_PLACEMENT_3D ( 'NONE', #35, #106, #17 ) ;
#198 = DIRECTION ( 'NONE',  ( 1.587462642805075604E-30, -1.000000000000000000, 4.546673714518734799E-16 ) ) ;
#199 = EDGE_CURVE ( 'NONE', #124, #124, #143, .T. ) ;
#200 = PERSON_AND_ORGANIZATION_ROLE ( 'creator' ) ;
#201 = APPLICATION_PROTOCOL_DEFINITION ( 'international standard', 'config_control_design', 1994, #158 ) ;
#202 = CARTESIAN_POINT ( 'NONE',  ( 4.681522410459344429E-30, 6.096367937231642457E-31, 1.340841309497165734E-15 ) ) ;
#203 = AXIS2_PLACEMENT_3D ( 'NONE', #62, #23, #8 ) ;
#204 = LOCAL_TIME ( 7, 52, 47.00000000000000000, #122 ) ;
#205 = ORIENTED_EDGE ( 'NONE', *, *, #199, .F. ) ;
#206 = CARTESIAN_POINT ( 'NONE',  ( 6.172970180186849208E-14, 8.038559721491469594E-15, 17.68008928334183594 ) ) ;
#207 = CARTESIAN_POINT ( 'NONE',  ( 1.396592535537258075E-15, 1.818669485807500329E-16, 0.4000000000000013545 ) ) ;
#208 = DIRECTION ( 'NONE',  ( -1.587462642805075604E-30, 1.000000000000000000, -4.546673714518734799E-16 ) ) ;
#209 = APPROVAL_PERSON_ORGANIZATION ( #36, #99, #144 ) ;
#210 = FACE_OUTER_BOUND ( 'NONE', #3, .T. ) ;
#211 = VERTEX_POINT ( 'NONE', #190 ) ;
#212 = APPLICATION_CONTEXT ( 'configuration controlled 3d designs of mechanical parts and assemblies' ) ;
#213 = DESIGN_CONTEXT ( 'detailed design', #212, 'design' ) ;
#214 = CARTESIAN_POINT ( 'NONE',  ( 6.172970180186849208E-14, 3.179999999999997939, 17.68008928334183594 ) ) ;
#215 = CARTESIAN_POINT ( 'NONE',  ( 6.172970180186849208E-14, 3.179999999999997939, 17.68008928334183594 ) ) ;
#216 = COORDINATED_UNIVERSAL_TIME_OFFSET ( 1, 0, .AHEAD. ) ;
#217 = CC_DESIGN_PERSON_AND_ORGANIZATION_ASSIGNMENT ( #107, #200, ( #184 ) ) ;
#218 = PERSON ( 'UNSPECIFIED', 'UNSPECIFIED', 'UNSPECIFIED', ('UNSPECIFIED'), ('UNSPECIFIED'), ('UNSPECIFIED') ) ;
#219 = FACE_BOUND ( 'NONE', #152, .T. ) ;
#220 = APPROVAL_STATUS ( 'not_yet_approved' ) ;
#221 = SECURITY_CLASSIFICATION ( '', '', #72 ) ;
#222 = FACE_OUTER_BOUND ( 'NONE', #38, .T. ) ;
#223 = PERSON_AND_ORGANIZATION ( #218, #238 ) ;
#224 = ADVANCED_FACE ( 'NONE', ( #172, #42 ), #84, .T. ) ;
#225 = CONICAL_SURFACE ( 'NONE', #168, 2.999999999999996003, 0.7853981633974453924 ) ;
#226 = EDGE_LOOP ( 'NONE', ( #110 ) ) ;
#227 = PERSON_AND_ORGANIZATION_ROLE ( 'design_owner' ) ;
#228 = DIRECTION ( 'NONE',  ( -1.587462642805075604E-30, 1.000000000000000000, -4.546673714518734799E-16 ) ) ;
#229 = CC_DESIGN_PERSON_AND_ORGANIZATION_ASSIGNMENT ( #112, #227, ( #243 ) ) ;
#230 = MANIFOLD_SOLID_BREP ( 'Corps-Déplacer/Copier1[1]', #70 ) ;
#231 = CARTESIAN_POINT ( 'NONE',  ( 6.172970180186847946E-14, 3.179999999999997939, 17.68008928334183238 ) ) ;
#232 = DIRECTION ( 'NONE',  ( 0.0000000000000000000, 1.000000000000000000, 0.0000000000000000000 ) ) ;
#233 = APPROVAL_PERSON_ORGANIZATION ( #9, #194, #11 ) ;
#234 = CIRCLE ( 'NONE', #186, 3.179999999999989502 ) ;
#235 = CC_DESIGN_PERSON_AND_ORGANIZATION_ASSIGNMENT ( #177, #51, ( #221 ) ) ;
#236 = AXIS2_PLACEMENT_3D ( 'NONE', #81, #26, #83 ) ;
#237 = CALENDAR_DATE ( 2021, 26, 11 ) ;
#238 = ORGANIZATION ( 'UNSPECIFIED', 'UNSPECIFIED', '' ) ;
#239 = PRODUCT_DEFINITION ( 'UNKNOWN', '', #184, #213 ) ;
#240 = CALENDAR_DATE ( 2021, 26, 11 ) ;
#241 = ORIENTED_EDGE ( 'NONE', *, *, #105, .F. ) ;
#242 = DATE_AND_TIME ( #104, #128 ) ;
#243 = PRODUCT ( '341685', '341685', '', ( #189 ) ) ;
ENDSEC;
END-ISO-10303-21;
