ISO-10303-21;
HEADER;
FILE_DESCRIPTION (( 'STEP AP203' ),
    '1' );
FILE_NAME ('341680.step',
    '2021-11-26T06:52:46',
    ( '' ),
    ( '' ),
    'SwSTEP 2.0',
    'SolidWorks 2019',
    '' );
FILE_SCHEMA (( 'CONFIG_CONTROL_DESIGN' ));
ENDSEC;

DATA;
#1 = CARTESIAN_POINT ( 'NONE',  ( 0.0000000000000000000, 0.0000000000000000000, 0.0000000000000000000 ) ) ;
#2 = ADVANCED_FACE ( 'NONE', ( #50, #160 ), #44, .T. ) ;
#3 = CIRCLE ( 'NONE', #16, 2.999999999999989786 ) ;
#4 = DIRECTION ( 'NONE',  ( 0.0000000000000000000, 1.000000000000000000, 0.0000000000000000000 ) ) ;
#5 = CALENDAR_DATE ( 2021, 26, 11 ) ;
#6 = CARTESIAN_POINT ( 'NONE',  ( 4.624385757691985240E-30, 5.999325085781096626E-31, 1.324476721741330750E-15 ) ) ;
#7 = PRODUCT_RELATED_PRODUCT_CATEGORY ( 'detail', '', ( #190 ) ) ;
#8 = PERSON_AND_ORGANIZATION ( #164, #36 ) ;
#9 = DIRECTION ( 'NONE',  ( 3.491481338843133355E-15, -1.030643345817079849E-16, 1.000000000000000000 ) ) ;
#10 = AXIS2_PLACEMENT_3D ( 'NONE', #110, #9, #123 ) ;
#11 = DIRECTION ( 'NONE',  ( -3.491481338843133355E-15, -4.529581371497112536E-16, -1.000000000000000000 ) ) ;
#12 = DIRECTION ( 'NONE',  ( -3.491481338843133355E-15, 1.030643345817079849E-16, -1.000000000000000000 ) ) ;
#13 = CARTESIAN_POINT ( 'NONE',  ( 0.0000000000000000000, 0.0000000000000000000, 0.0000000000000000000 ) ) ;
#14 = CC_DESIGN_PERSON_AND_ORGANIZATION_ASSIGNMENT ( #8, #176, ( #205 ) ) ;
#15 = EDGE_LOOP ( 'NONE', ( #216 ) ) ;
#16 = AXIS2_PLACEMENT_3D ( 'NONE', #217, #124, #196 ) ;
#17 = EDGE_LOOP ( 'NONE', ( #230 ) ) ;
#18 = PRODUCT_DEFINITION_FORMATION_WITH_SPECIFIED_SOURCE ( 'ANY', '', #190, .NOT_KNOWN. ) ;
#19 = ADVANCED_FACE ( 'NONE', ( #104 ), #158, .T. ) ;
#20 = VERTEX_POINT ( 'NONE', #79 ) ;
#21 = CALENDAR_DATE ( 2021, 26, 11 ) ;
#22 = EDGE_LOOP ( 'NONE', ( #228 ) ) ;
#23 = CARTESIAN_POINT ( 'NONE',  ( 3.505447264198505636E-13, 2.999999999999985789, 100.4000000000000057 ) ) ;
#24 = EDGE_LOOP ( 'NONE', ( #153 ) ) ;
#25 = CC_DESIGN_APPROVAL ( #111, ( #18 ) ) ;
#26 = DIRECTION ( 'NONE',  ( -1.587137196642414548E-30, 1.000000000000000000, -4.467394054615394872E-16 ) ) ;
#27 = PLANE ( 'NONE',  #184 ) ;
#28 = PERSON_AND_ORGANIZATION_ROLE ( 'design_supplier' ) ;
#29 = CYLINDRICAL_SURFACE ( 'NONE', #141, 3.154999999999993143 ) ;
#30 = CONICAL_SURFACE ( 'NONE', #62, 3.154999999999999361, 0.5235987755982998149 ) ;
#31 = DIRECTION ( 'NONE',  ( 0.0000000000000000000, 1.000000000000000000, 0.0000000000000000000 ) ) ;
#32 = PRODUCT_DEFINITION ( 'UNKNOWN', '', #18, #61 ) ;
#33 = FACE_OUTER_BOUND ( 'NONE', #24, .T. ) ;
#34 = DIRECTION ( 'NONE',  ( 0.0000000000000000000, 1.000000000000000000, 0.0000000000000000000 ) ) ;
#35 = ADVANCED_BREP_SHAPE_REPRESENTATION ( '341680', ( #149, #151, #57 ), #172 ) ;
#36 = ORGANIZATION ( 'UNSPECIFIED', 'UNSPECIFIED', '' ) ;
#37 = ORIENTED_EDGE ( 'NONE', *, *, #148, .F. ) ;
#38 = ADVANCED_FACE ( 'NONE', ( #239, #178 ), #84, .T. ) ;
#39 = APPROVAL_PERSON_ORGANIZATION ( #63, #73, #100 ) ;
#40 = APPROVAL_STATUS ( 'not_yet_approved' ) ;
#41 = APPROVAL_STATUS ( 'not_yet_approved' ) ;
#42 = AXIS2_PLACEMENT_3D ( 'NONE', #195, #174, #31 ) ;
#43 = VERTEX_POINT ( 'NONE', #85 ) ;
#44 = CONICAL_SURFACE ( 'NONE', #201, 2.924059892324147203, 0.5235987755982987046 ) ;
#45 = VERTEX_POINT ( 'NONE', #94 ) ;
#46 = VERTEX_POINT ( 'NONE', #23 ) ;
#47 = CARTESIAN_POINT ( 'NONE',  ( 4.624385757691985240E-30, 5.999325085781096626E-31, 1.324476721741330750E-15 ) ) ;
#48 = ADVANCED_FACE ( 'NONE', ( #128 ), #69, .T. ) ;
#49 = LOCAL_TIME ( 7, 52, 46.00000000000000000, #169 ) ;
#50 = FACE_OUTER_BOUND ( 'NONE', #17, .T. ) ;
#51 = DIRECTION ( 'NONE',  ( -3.491481338843133355E-15, 1.030643345817079849E-16, -1.000000000000000000 ) ) ;
#52 = CC_DESIGN_PERSON_AND_ORGANIZATION_ASSIGNMENT ( #210, #28, ( #18 ) ) ;
#53 = DIRECTION ( 'NONE',  ( -1.581494883135365449E-30, 1.000000000000000000, -4.529581371497112536E-16 ) ) ;
#54 = AXIS2_PLACEMENT_3D ( 'NONE', #180, #51, #221 ) ;
#55 = FACE_BOUND ( 'NONE', #22, .T. ) ;
#56 = DIRECTION ( 'NONE',  ( 3.598472008923184252E-31, 1.000000000000000000, 1.030643345817079726E-16 ) ) ;
#57 = AXIS2_PLACEMENT_3D ( 'NONE', #1, #60, #243 ) ;
#58 = CC_DESIGN_DATE_AND_TIME_ASSIGNMENT ( #64, #59, ( #32 ) ) ;
#59 = DATE_TIME_ROLE ( 'creation_date' ) ;
#60 = DIRECTION ( 'NONE',  ( 0.0000000000000000000, 0.0000000000000000000, 1.000000000000000000 ) ) ;
#61 = DESIGN_CONTEXT ( 'detailed design', #155, 'design' ) ;
#62 = AXIS2_PLACEMENT_3D ( 'NONE', #90, #140, #202 ) ;
#63 = PERSON_AND_ORGANIZATION ( #164, #36 ) ;
#64 = DATE_AND_TIME ( #226, #76 ) ;
#65 = EDGE_LOOP ( 'NONE', ( #114 ) ) ;
#66 = CC_DESIGN_DATE_AND_TIME_ASSIGNMENT ( #233, #197, ( #205 ) ) ;
#67 = DIRECTION ( 'NONE',  ( 3.491481338843133355E-15, 4.529581371497112536E-16, 1.000000000000000000 ) ) ;
#68 = CARTESIAN_POINT ( 'NONE',  ( 6.188088737868237360E-14, 3.154999999999997584, 17.72339055353106119 ) ) ;
#69 = PLANE ( 'NONE',  #222 ) ;
#70 = APPROVAL_STATUS ( 'not_yet_approved' ) ;
#71 = CARTESIAN_POINT ( 'NONE',  ( 1.396592535537257878E-15, 1.811832548598851128E-16, 0.4000000000000012990 ) ) ;
#72 = FACE_OUTER_BOUND ( 'NONE', #170, .T. ) ;
#73 = APPROVAL ( #40, 'UNSPECIFIED' ) ;
#74 = LOCAL_TIME ( 7, 52, 46.00000000000000000, #215 ) ;
#75 = ADVANCED_FACE ( 'NONE', ( #159 ), #136, .T. ) ;
#76 = LOCAL_TIME ( 7, 52, 46.00000000000000000, #186 ) ;
#77 = UNCERTAINTY_MEASURE_WITH_UNIT (LENGTH_MEASURE( 1.000000000000000082E-05 ), #99, 'distance_accuracy_value', 'NONE');
#78 = APPROVAL_DATE_TIME ( #95, #111 ) ;
#79 = CARTESIAN_POINT ( 'NONE',  ( 6.188088737868238623E-14, 3.154999999999997584, 17.72339055353106474 ) ) ;
#80 = CIRCLE ( 'NONE', #220, 2.999999999999996003 ) ;
#81 = CIRCLE ( 'NONE', #142, 2.399999999999996358 ) ;
#82 = EDGE_CURVE ( 'NONE', #185, #185, #165, .T. ) ;
#83 = EDGE_LOOP ( 'NONE', ( #37 ) ) ;
#84 = CONICAL_SURFACE ( 'NONE', #54, 2.999999999999996003, 0.7853981633974453924 ) ;
#85 = CARTESIAN_POINT ( 'NONE',  ( 6.281823795492844412E-14, 2.999999999999988010, 17.99185842870425489 ) ) ;
#86 = DIRECTION ( 'NONE',  ( 1.581494883135365449E-30, -1.000000000000000000, 4.529581371497112536E-16 ) ) ;
#87 = EDGE_LOOP ( 'NONE', ( #98 ) ) ;
#88 = SHAPE_DEFINITION_REPRESENTATION ( #118, #35 ) ;
#89 = ORIENTED_EDGE ( 'NONE', *, *, #167, .F. ) ;
#90 = CARTESIAN_POINT ( 'NONE',  ( 6.188088737868238623E-14, -1.826649453931408535E-15, 17.72339055353106474 ) ) ;
#91 = DIRECTION ( 'NONE',  ( -3.491481338843133355E-15, -4.529581371497112536E-16, -1.000000000000000000 ) ) ;
#92 = CARTESIAN_POINT ( 'NONE',  ( 3.526396152231565067E-13, -1.040949779275250653E-14, 101.0000000000000000 ) ) ;
#93 = AXIS2_PLACEMENT_3D ( 'NONE', #162, #91, #4 ) ;
#94 = CARTESIAN_POINT ( 'NONE',  ( -6.842277657836020854E-46, 2.924059892324147203, 0.0000000000000000000 ) ) ;
#95 = DATE_AND_TIME ( #21, #49 ) ;
#96 = LOCAL_TIME ( 7, 52, 46.00000000000000000, #234 ) ;
#97 = CLOSED_SHELL ( 'NONE', ( #19, #38, #224, #212, #75 ) ) ;
#98 = ORIENTED_EDGE ( 'NONE', *, *, #113, .F. ) ;
#99 =( LENGTH_UNIT ( ) NAMED_UNIT ( * ) SI_UNIT ( .MILLI., .METRE. ) );
#100 = APPROVAL_ROLE ( '' ) ;
#101 = ORIENTED_EDGE ( 'NONE', *, *, #82, .F. ) ;
#102 =( NAMED_UNIT ( * ) PLANE_ANGLE_UNIT ( ) SI_UNIT ( $, .RADIAN. ) );
#103 = CC_DESIGN_APPROVAL ( #73, ( #32 ) ) ;
#104 = FACE_OUTER_BOUND ( 'NONE', #166, .T. ) ;
#105 = DIRECTION ( 'NONE',  ( -1.581494883135365449E-30, 1.000000000000000000, -4.529581371497112536E-16 ) ) ;
#106 = CARTESIAN_POINT ( 'NONE',  ( -2.312192878845992620E-30, 2.924059892324147203, -6.622383608706653752E-16 ) ) ;
#107 = CIRCLE ( 'NONE', #177, 2.924059892324147203 ) ;
#108 = CALENDAR_DATE ( 2021, 26, 11 ) ;
#109 = DIRECTION ( 'NONE',  ( -1.581494883135365098E-30, 1.000000000000000000, -4.529581371497111550E-16 ) ) ;
#110 = CARTESIAN_POINT ( 'NONE',  ( 3.526396152231565067E-13, -1.040949779275250653E-14, 101.0000000000000000 ) ) ;
#111 = APPROVAL ( #41, 'UNSPECIFIED' ) ;
#112 = DIRECTION ( 'NONE',  ( -3.491481338843133355E-15, 1.030643345817079849E-16, -1.000000000000000000 ) ) ;
#113 = EDGE_CURVE ( 'NONE', #189, #189, #209, .T. ) ;
#114 = ORIENTED_EDGE ( 'NONE', *, *, #148, .T. ) ;
#115 = EDGE_LOOP ( 'NONE', ( #175 ) ) ;
#116 = CIRCLE ( 'NONE', #93, 3.154999999999989591 ) ;
#117 = APPROVAL_DATE_TIME ( #229, #73 ) ;
#118 = PRODUCT_DEFINITION_SHAPE ( 'NONE', 'NONE',  #32 ) ;
#119 = APPROVAL_ROLE ( '' ) ;
#120 = CLOSED_SHELL ( 'NONE', ( #48, #204, #2, #145 ) ) ;
#121 = PERSON_AND_ORGANIZATION ( #164, #36 ) ;
#122 = CARTESIAN_POINT ( 'NONE',  ( 6.188088737868237360E-14, 8.027953969104217574E-15, 17.72339055353106119 ) ) ;
#123 = DIRECTION ( 'NONE',  ( -3.598472008923184252E-31, -1.000000000000000000, -1.030643345817079849E-16 ) ) ;
#124 = DIRECTION ( 'NONE',  ( -3.491481338843133355E-15, 1.030643345817079849E-16, -1.000000000000000000 ) ) ;
#125 = DIRECTION ( 'NONE',  ( 3.598472008923184252E-31, 1.000000000000000000, 1.030643345817079849E-16 ) ) ;
#126 = AXIS2_PLACEMENT_3D ( 'NONE', #13, #203, #56 ) ;
#127 = SECURITY_CLASSIFICATION_LEVEL ( 'unclassified' ) ;
#128 = FACE_OUTER_BOUND ( 'NONE', #207, .T. ) ;
#129 = EDGE_CURVE ( 'NONE', #20, #20, #116, .T. ) ;
#130 = DIRECTION ( 'NONE',  ( 0.0000000000000000000, 1.000000000000000000, 0.0000000000000000000 ) ) ;
#131 =( NAMED_UNIT ( * ) SI_UNIT ( $, .STERADIAN. ) SOLID_ANGLE_UNIT ( ) );
#132 = PERSON_AND_ORGANIZATION ( #164, #36 ) ;
#133 = PERSON_AND_ORGANIZATION_ROLE ( 'creator' ) ;
#134 = COORDINATED_UNIVERSAL_TIME_OFFSET ( 1, 0, .AHEAD. ) ;
#135 = EDGE_LOOP ( 'NONE', ( #193 ) ) ;
#136 = PLANE ( 'NONE',  #198 ) ;
#137 = APPROVAL_PERSON_ORGANIZATION ( #132, #111, #119 ) ;
#138 = DIRECTION ( 'NONE',  ( 1.581494883135365449E-30, -1.000000000000000000, 4.529581371497111550E-16 ) ) ;
#139 = DIRECTION ( 'NONE',  ( -3.491481338843133355E-15, -4.529581371497112536E-16, -1.000000000000000000 ) ) ;
#140 = DIRECTION ( 'NONE',  ( -3.491481338843133355E-15, 1.030643345817079849E-16, -1.000000000000000000 ) ) ;
#141 = AXIS2_PLACEMENT_3D ( 'NONE', #218, #11, #53 ) ;
#142 = AXIS2_PLACEMENT_3D ( 'NONE', #92, #112, #130 ) ;
#143 = FACE_OUTER_BOUND ( 'NONE', #115, .T. ) ;
#144 = CC_DESIGN_SECURITY_CLASSIFICATION ( #205, ( #18 ) ) ;
#145 = ADVANCED_FACE ( 'NONE', ( #237 ), #27, .T. ) ;
#146 = PERSON_AND_ORGANIZATION_ROLE ( 'creator' ) ;
#147 = PERSON_AND_ORGANIZATION ( #164, #36 ) ;
#148 = EDGE_CURVE ( 'NONE', #45, #45, #107, .T. ) ;
#149 = MANIFOLD_SOLID_BREP ( 'Corps-Déplacer/Copier1[1]', #97 ) ;
#150 = AXIS2_PLACEMENT_3D ( 'NONE', #71, #139, #26 ) ;
#151 = MANIFOLD_SOLID_BREP ( 'Corps-Déplacer/Copier1[2]', #120 ) ;
#152 = EDGE_LOOP ( 'NONE', ( #183 ) ) ;
#153 = ORIENTED_EDGE ( 'NONE', *, *, #129, .T. ) ;
#154 = CARTESIAN_POINT ( 'NONE',  ( 3.526396152231565067E-13, 2.399999999999985700, 101.0000000000000000 ) ) ;
#155 = APPLICATION_CONTEXT ( 'configuration controlled 3d designs of mechanical parts and assemblies' ) ;
#156 = DIRECTION ( 'NONE',  ( -3.491481338843133355E-15, -4.529581371497112536E-16, -1.000000000000000000 ) ) ;
#157 = DATE_AND_TIME ( #108, #74 ) ;
#158 = PLANE ( 'NONE',  #10 ) ;
#159 = FACE_OUTER_BOUND ( 'NONE', #15, .T. ) ;
#160 = FACE_BOUND ( 'NONE', #83, .T. ) ;
#161 = PERSON_AND_ORGANIZATION ( #164, #36 ) ;
#162 = CARTESIAN_POINT ( 'NONE',  ( 6.188088737868238623E-14, 8.027953969104219152E-15, 17.72339055353106474 ) ) ;
#163 = FACE_OUTER_BOUND ( 'NONE', #232, .T. ) ;
#164 = PERSON ( 'UNSPECIFIED', 'UNSPECIFIED', 'UNSPECIFIED', ('UNSPECIFIED'), ('UNSPECIFIED'), ('UNSPECIFIED') ) ;
#165 = CIRCLE ( 'NONE', #150, 3.154999999999997140 ) ;
#166 = EDGE_LOOP ( 'NONE', ( #214 ) ) ;
#167 = EDGE_CURVE ( 'NONE', #43, #43, #3, .T. ) ;
#168 = APPLICATION_PROTOCOL_DEFINITION ( 'international standard', 'config_control_design', 1994, #200 ) ;
#169 = COORDINATED_UNIVERSAL_TIME_OFFSET ( 1, 0, .AHEAD. ) ;
#170 = EDGE_LOOP ( 'NONE', ( #101 ) ) ;
#171 = VERTEX_POINT ( 'NONE', #154 ) ;
#172 =( GEOMETRIC_REPRESENTATION_CONTEXT ( 3 ) GLOBAL_UNCERTAINTY_ASSIGNED_CONTEXT ( ( #77 ) ) GLOBAL_UNIT_ASSIGNED_CONTEXT ( ( #99, #102, #131 ) ) REPRESENTATION_CONTEXT ( 'NONE', 'WORKASPACE' ) );
#173 = APPROVAL ( #70, 'UNSPECIFIED' ) ;
#174 = DIRECTION ( 'NONE',  ( -3.491481338843133355E-15, 1.030643345817079849E-16, -1.000000000000000000 ) ) ;
#175 = ORIENTED_EDGE ( 'NONE', *, *, #225, .T. ) ;
#176 = PERSON_AND_ORGANIZATION_ROLE ( 'classification_officer' ) ;
#177 = AXIS2_PLACEMENT_3D ( 'NONE', #6, #156, #109 ) ;
#178 = FACE_OUTER_BOUND ( 'NONE', #135, .T. ) ;
#179 = FACE_OUTER_BOUND ( 'NONE', #87, .T. ) ;
#180 = CARTESIAN_POINT ( 'NONE',  ( 3.505447264198505636E-13, -1.034765919200348261E-14, 100.4000000000000057 ) ) ;
#181 = CARTESIAN_POINT ( 'NONE',  ( 3.505447264198505636E-13, -1.034765919200348261E-14, 100.4000000000000057 ) ) ;
#182 = LOCAL_TIME ( 7, 52, 46.00000000000000000, #134 ) ;
#183 = ORIENTED_EDGE ( 'NONE', *, *, #241, .T. ) ;
#184 = AXIS2_PLACEMENT_3D ( 'NONE', #106, #236, #105 ) ;
#185 = VERTEX_POINT ( 'NONE', #213 ) ;
#186 = COORDINATED_UNIVERSAL_TIME_OFFSET ( 1, 0, .AHEAD. ) ;
#187 = APPROVAL_PERSON_ORGANIZATION ( #161, #173, #194 ) ;
#188 = CARTESIAN_POINT ( 'NONE',  ( 6.188088737868238623E-14, 3.154999999999997584, 17.72339055353106474 ) ) ;
#189 = VERTEX_POINT ( 'NONE', #188 ) ;
#190 = PRODUCT ( '341680', '341680', '', ( #211 ) ) ;
#191 = ORIENTED_EDGE ( 'NONE', *, *, #129, .F. ) ;
#192 = CC_DESIGN_PERSON_AND_ORGANIZATION_ASSIGNMENT ( #121, #146, ( #32 ) ) ;
#193 = ORIENTED_EDGE ( 'NONE', *, *, #225, .F. ) ;
#194 = APPROVAL_ROLE ( '' ) ;
#195 = CARTESIAN_POINT ( 'NONE',  ( 6.188088737868238623E-14, -1.826649453931408535E-15, 17.72339055353106474 ) ) ;
#196 = DIRECTION ( 'NONE',  ( 0.0000000000000000000, 1.000000000000000000, 0.0000000000000000000 ) ) ;
#197 = DATE_TIME_ROLE ( 'classification_date' ) ;
#198 = AXIS2_PLACEMENT_3D ( 'NONE', #68, #12, #125 ) ;
#199 = DIRECTION ( 'NONE',  ( 3.491481338843133355E-15, 4.529581371497112536E-16, 1.000000000000000000 ) ) ;
#200 = APPLICATION_CONTEXT ( 'configuration controlled 3d designs of mechanical parts and assemblies' ) ;
#201 = AXIS2_PLACEMENT_3D ( 'NONE', #47, #67, #138 ) ;
#202 = DIRECTION ( 'NONE',  ( 0.0000000000000000000, 1.000000000000000000, 0.0000000000000000000 ) ) ;
#203 = DIRECTION ( 'NONE',  ( -3.491481338843133355E-15, 1.030643345817079849E-16, -1.000000000000000000 ) ) ;
#204 = ADVANCED_FACE ( 'NONE', ( #33, #72 ), #29, .T. ) ;
#205 = SECURITY_CLASSIFICATION ( '', '', #127 ) ;
#206 = CC_DESIGN_PERSON_AND_ORGANIZATION_ASSIGNMENT ( #147, #133, ( #18 ) ) ;
#207 = EDGE_LOOP ( 'NONE', ( #191 ) ) ;
#208 = APPLICATION_PROTOCOL_DEFINITION ( 'international standard', 'config_control_design', 1994, #155 ) ;
#209 = CIRCLE ( 'NONE', #42, 3.154999999999999361 ) ;
#210 = PERSON_AND_ORGANIZATION ( #164, #36 ) ;
#211 = MECHANICAL_CONTEXT ( 'NONE', #200, 'mechanical' ) ;
#212 = ADVANCED_FACE ( 'NONE', ( #55, #179 ), #30, .T. ) ;
#213 = CARTESIAN_POINT ( 'NONE',  ( 1.396592535537252948E-15, 3.154999999999997140, 0.3999999999999999112 ) ) ;
#214 = ORIENTED_EDGE ( 'NONE', *, *, #241, .F. ) ;
#215 = COORDINATED_UNIVERSAL_TIME_OFFSET ( 1, 0, .AHEAD. ) ;
#216 = ORIENTED_EDGE ( 'NONE', *, *, #113, .T. ) ;
#217 = CARTESIAN_POINT ( 'NONE',  ( 6.281823795492844412E-14, -1.854318916842698141E-15, 17.99185842870425489 ) ) ;
#218 = CARTESIAN_POINT ( 'NONE',  ( 0.0000000000000000000, 0.0000000000000000000, 0.0000000000000000000 ) ) ;
#219 = APPROVAL_DATE_TIME ( #157, #173 ) ;
#220 = AXIS2_PLACEMENT_3D ( 'NONE', #181, #223, #34 ) ;
#221 = DIRECTION ( 'NONE',  ( 0.0000000000000000000, 1.000000000000000000, 0.0000000000000000000 ) ) ;
#222 = AXIS2_PLACEMENT_3D ( 'NONE', #122, #199, #86 ) ;
#223 = DIRECTION ( 'NONE',  ( -3.491481338843133355E-15, 1.030643345817079849E-16, -1.000000000000000000 ) ) ;
#224 = ADVANCED_FACE ( 'NONE', ( #143, #163 ), #240, .T. ) ;
#225 = EDGE_CURVE ( 'NONE', #46, #46, #80, .T. ) ;
#226 = CALENDAR_DATE ( 2021, 26, 11 ) ;
#227 = PERSON_AND_ORGANIZATION_ROLE ( 'design_owner' ) ;
#228 = ORIENTED_EDGE ( 'NONE', *, *, #167, .T. ) ;
#229 = DATE_AND_TIME ( #242, #182 ) ;
#230 = ORIENTED_EDGE ( 'NONE', *, *, #82, .T. ) ;
#231 = PERSON_AND_ORGANIZATION ( #164, #36 ) ;
#232 = EDGE_LOOP ( 'NONE', ( #89 ) ) ;
#233 = DATE_AND_TIME ( #5, #96 ) ;
#234 = COORDINATED_UNIVERSAL_TIME_OFFSET ( 1, 0, .AHEAD. ) ;
#235 = CC_DESIGN_APPROVAL ( #173, ( #205 ) ) ;
#236 = DIRECTION ( 'NONE',  ( -3.491481338843133355E-15, -4.529581371497112536E-16, -1.000000000000000000 ) ) ;
#237 = FACE_OUTER_BOUND ( 'NONE', #65, .T. ) ;
#238 = CC_DESIGN_PERSON_AND_ORGANIZATION_ASSIGNMENT ( #231, #227, ( #190 ) ) ;
#239 = FACE_BOUND ( 'NONE', #152, .T. ) ;
#240 = CYLINDRICAL_SURFACE ( 'NONE', #126, 2.999999999999993339 ) ;
#241 = EDGE_CURVE ( 'NONE', #171, #171, #81, .T. ) ;
#242 = CALENDAR_DATE ( 2021, 26, 11 ) ;
#243 = DIRECTION ( 'NONE',  ( 1.000000000000000000, 0.0000000000000000000, 0.0000000000000000000 ) ) ;
ENDSEC;
END-ISO-10303-21;
