ISO-10303-21;
HEADER;
FILE_DESCRIPTION (( 'STEP AP203' ),
    '1' );
FILE_NAME ('341670.step',
    '2021-11-26T06:52:46',
    ( '' ),
    ( '' ),
    'SwSTEP 2.0',
    'SolidWorks 2019',
    '' );
FILE_SCHEMA (( 'CONFIG_CONTROL_DESIGN' ));
ENDSEC;

DATA;
#1 = DIRECTION ( 'NONE',  ( 0.0000000000000000000, 1.000000000000000000, 0.0000000000000000000 ) ) ;
#2 = COORDINATED_UNIVERSAL_TIME_OFFSET ( 1, 0, .AHEAD. ) ;
#3 = PERSON_AND_ORGANIZATION ( #17, #80 ) ;
#4 = MANIFOLD_SOLID_BREP ( 'Corps-Déplacer/Copier1[2]', #38 ) ;
#5 = LOCAL_TIME ( 7, 52, 46.00000000000000000, #229 ) ;
#6 = VERTEX_POINT ( 'NONE', #104 ) ;
#7 = PERSON_AND_ORGANIZATION ( #17, #80 ) ;
#8 = APPROVAL_STATUS ( 'not_yet_approved' ) ;
#9 = AXIS2_PLACEMENT_3D ( 'NONE', #96, #192, #98 ) ;
#10 = EDGE_LOOP ( 'NONE', ( #170 ) ) ;
#11 = CC_DESIGN_SECURITY_CLASSIFICATION ( #44, ( #33 ) ) ;
#12 = ORIENTED_EDGE ( 'NONE', *, *, #28, .T. ) ;
#13 = CARTESIAN_POINT ( 'NONE',  ( 3.943437072783983618E-30, 5.077586123870603817E-31, 1.129445266945233279E-15 ) ) ;
#14 = VERTEX_POINT ( 'NONE', #169 ) ;
#15 = FACE_OUTER_BOUND ( 'NONE', #201, .T. ) ;
#16 = CYLINDRICAL_SURFACE ( 'NONE', #156, 3.104999999999993321 ) ;
#17 = PERSON ( 'UNSPECIFIED', 'UNSPECIFIED', 'UNSPECIFIED', ('UNSPECIFIED'), ('UNSPECIFIED'), ('UNSPECIFIED') ) ;
#18 = DIRECTION ( 'NONE',  ( -3.491481338843133355E-15, 1.030643345817079849E-16, -1.000000000000000000 ) ) ;
#19 = DIRECTION ( 'NONE',  ( 0.0000000000000000000, 1.000000000000000000, 0.0000000000000000000 ) ) ;
#20 = SECURITY_CLASSIFICATION_LEVEL ( 'unclassified' ) ;
#21 = CARTESIAN_POINT ( 'NONE',  ( 0.0000000000000000000, 0.0000000000000000000, 0.0000000000000000000 ) ) ;
#22 = CC_DESIGN_PERSON_AND_ORGANIZATION_ASSIGNMENT ( #99, #177, ( #44 ) ) ;
#23 = CALENDAR_DATE ( 2021, 26, 11 ) ;
#24 = VERTEX_POINT ( 'NONE', #123 ) ;
#25 = CC_DESIGN_PERSON_AND_ORGANIZATION_ASSIGNMENT ( #176, #139, ( #198 ) ) ;
#26 = DIRECTION ( 'NONE',  ( 0.0000000000000000000, 0.0000000000000000000, 1.000000000000000000 ) ) ;
#27 = CC_DESIGN_APPROVAL ( #166, ( #44 ) ) ;
#28 = EDGE_CURVE ( 'NONE', #116, #116, #128, .T. ) ;
#29 = ORIENTED_EDGE ( 'NONE', *, *, #241, .T. ) ;
#30 = APPLICATION_CONTEXT ( 'configuration controlled 3d designs of mechanical parts and assemblies' ) ;
#31 = EDGE_LOOP ( 'NONE', ( #168 ) ) ;
#32 = DIRECTION ( 'NONE',  ( -1.569646419946677237E-30, 1.000000000000000000, -4.495646024179421087E-16 ) ) ;
#33 = PRODUCT_DEFINITION_FORMATION_WITH_SPECIFIED_SOURCE ( 'ANY', '', #235, .NOT_KNOWN. ) ;
#34 = DIRECTION ( 'NONE',  ( -3.491481338843133355E-15, -4.495646024179421087E-16, -1.000000000000000000 ) ) ;
#35 = EDGE_CURVE ( 'NONE', #14, #14, #239, .T. ) ;
#36 = DIRECTION ( 'NONE',  ( -3.491481338843133355E-15, -4.495646024179421087E-16, -1.000000000000000000 ) ) ;
#37 = FACE_OUTER_BOUND ( 'NONE', #51, .T. ) ;
#38 = CLOSED_SHELL ( 'NONE', ( #117, #183, #52, #40 ) ) ;
#39 = APPROVAL_DATE_TIME ( #159, #103 ) ;
#40 = ADVANCED_FACE ( 'NONE', ( #130 ), #231, .T. ) ;
#41 = PERSON_AND_ORGANIZATION_ROLE ( 'design_supplier' ) ;
#42 = PERSON_AND_ORGANIZATION_ROLE ( 'design_owner' ) ;
#43 = CC_DESIGN_APPROVAL ( #232, ( #198 ) ) ;
#44 = SECURITY_CLASSIFICATION ( '', '', #20 ) ;
#45 = AXIS2_PLACEMENT_3D ( 'NONE', #206, #73, #129 ) ;
#46 = CC_DESIGN_PERSON_AND_ORGANIZATION_ASSIGNMENT ( #196, #42, ( #235 ) ) ;
#47 = VERTEX_POINT ( 'NONE', #140 ) ;
#48 = APPROVAL_DATE_TIME ( #70, #166 ) ;
#49 = CALENDAR_DATE ( 2021, 26, 11 ) ;
#50 = AXIS2_PLACEMENT_3D ( 'NONE', #13, #164, #74 ) ;
#51 = EDGE_LOOP ( 'NONE', ( #72 ) ) ;
#52 = ADVANCED_FACE ( 'NONE', ( #163, #211 ), #112, .T. ) ;
#53 = DIRECTION ( 'NONE',  ( 3.491481338843133355E-15, 4.495646024179421087E-16, 1.000000000000000000 ) ) ;
#54 = DIRECTION ( 'NONE',  ( 0.0000000000000000000, 1.000000000000000000, 0.0000000000000000000 ) ) ;
#55 = FACE_OUTER_BOUND ( 'NONE', #109, .T. ) ;
#56 = CARTESIAN_POINT ( 'NONE',  ( 1.396592535537257878E-15, 1.798258409671774302E-16, 0.4000000000000012990 ) ) ;
#57 = CONICAL_SURFACE ( 'NONE', #108, 2.999999999999996003, 0.7853981633974453924 ) ;
#58 = ADVANCED_FACE ( 'NONE', ( #55 ), #75, .T. ) ;
#59 = CARTESIAN_POINT ( 'NONE',  ( 6.218325853231011142E-14, 3.104999999999997318, 17.80999309390950103 ) ) ;
#60 = CARTESIAN_POINT ( 'NONE',  ( 6.218325853231012404E-14, -1.835575087128597814E-15, 17.80999309390950458 ) ) ;
#61 = ADVANCED_FACE ( 'NONE', ( #132, #15 ), #175, .T. ) ;
#62 = AXIS2_PLACEMENT_3D ( 'NONE', #59, #190, #237 ) ;
#63 = DIRECTION ( 'NONE',  ( 1.000000000000000000, 0.0000000000000000000, 0.0000000000000000000 ) ) ;
#64 = DATE_TIME_ROLE ( 'creation_date' ) ;
#65 = AXIS2_PLACEMENT_3D ( 'NONE', #88, #152, #54 ) ;
#66 = CALENDAR_DATE ( 2021, 26, 11 ) ;
#67 = COORDINATED_UNIVERSAL_TIME_OFFSET ( 1, 0, .AHEAD. ) ;
#68 = CC_DESIGN_PERSON_AND_ORGANIZATION_ASSIGNMENT ( #193, #41, ( #33 ) ) ;
#69 = CC_DESIGN_APPROVAL ( #103, ( #33 ) ) ;
#70 = DATE_AND_TIME ( #49, #137 ) ;
#71 = AXIS2_PLACEMENT_3D ( 'NONE', #60, #208, #173 ) ;
#72 = ORIENTED_EDGE ( 'NONE', *, *, #148, .F. ) ;
#73 = DIRECTION ( 'NONE',  ( -3.491481338843133355E-15, 1.030643345817079849E-16, -1.000000000000000000 ) ) ;
#74 = DIRECTION ( 'NONE',  ( -1.569646419946677413E-30, 1.000000000000000000, -4.495646024179421087E-16 ) ) ;
#75 = PLANE ( 'NONE',  #62 ) ;
#76 = DIRECTION ( 'NONE',  ( -1.550668232195843648E-30, 1.000000000000000000, -4.539332767250103892E-16 ) ) ;
#77 = DIRECTION ( 'NONE',  ( 3.491481338843133355E-15, -1.030643345817079849E-16, 1.000000000000000000 ) ) ;
#78 = DIRECTION ( 'NONE',  ( -3.491481338843133355E-15, -4.495646024179421087E-16, -1.000000000000000000 ) ) ;
#79 = COORDINATED_UNIVERSAL_TIME_OFFSET ( 1, 0, .AHEAD. ) ;
#80 = ORGANIZATION ( 'UNSPECIFIED', 'UNSPECIFIED', '' ) ;
#81 = CIRCLE ( 'NONE', #146, 3.104999999999996874 ) ;
#82 = APPROVAL_DATE_TIME ( #182, #232 ) ;
#83 =( LENGTH_UNIT ( ) NAMED_UNIT ( * ) SI_UNIT ( .MILLI., .METRE. ) );
#84 = DESIGN_CONTEXT ( 'detailed design', #30, 'design' ) ;
#85 = EDGE_LOOP ( 'NONE', ( #106 ) ) ;
#86 = AXIS2_PLACEMENT_3D ( 'NONE', #21, #26, #63 ) ;
#87 = ORIENTED_EDGE ( 'NONE', *, *, #205, .F. ) ;
#88 = CARTESIAN_POINT ( 'NONE',  ( 6.281823795492844412E-14, -1.854318916842698141E-15, 17.99185842870425489 ) ) ;
#89 = VERTEX_POINT ( 'NONE', #213 ) ;
#90 = ORIENTED_EDGE ( 'NONE', *, *, #93, .T. ) ;
#91 = DIRECTION ( 'NONE',  ( 3.598472008923184252E-31, 1.000000000000000000, 1.030643345817079726E-16 ) ) ;
#92 = DIRECTION ( 'NONE',  ( -1.569646419946677413E-30, 1.000000000000000000, -4.495646024179421087E-16 ) ) ;
#93 = EDGE_CURVE ( 'NONE', #89, #89, #81, .T. ) ;
#94 = CARTESIAN_POINT ( 'NONE',  ( 0.0000000000000000000, 0.0000000000000000000, 0.0000000000000000000 ) ) ;
#95 = CARTESIAN_POINT ( 'NONE',  ( -2.539539284306940150E-30, 2.874059892324147825, -7.273529593454423044E-16 ) ) ;
#96 = CARTESIAN_POINT ( 'NONE',  ( 3.526396152231565067E-13, -1.040949779275250653E-14, 101.0000000000000000 ) ) ;
#97 = CIRCLE ( 'NONE', #9, 2.399999999999996358 ) ;
#98 = DIRECTION ( 'NONE',  ( 0.0000000000000000000, 1.000000000000000000, 0.0000000000000000000 ) ) ;
#99 = PERSON_AND_ORGANIZATION ( #17, #80 ) ;
#100 = PERSON_AND_ORGANIZATION ( #17, #80 ) ;
#101 = AXIS2_PLACEMENT_3D ( 'NONE', #207, #36, #110 ) ;
#102 = VERTEX_POINT ( 'NONE', #227 ) ;
#103 = APPROVAL ( #143, 'UNSPECIFIED' ) ;
#104 = CARTESIAN_POINT ( 'NONE',  ( 6.218325853231012404E-14, 3.104999999999997318, 17.80999309390950458 ) ) ;
#105 = SHAPE_DEFINITION_REPRESENTATION ( #127, #217 ) ;
#106 = ORIENTED_EDGE ( 'NONE', *, *, #148, .T. ) ;
#107 = LOCAL_TIME ( 7, 52, 46.00000000000000000, #79 ) ;
#108 = AXIS2_PLACEMENT_3D ( 'NONE', #135, #18, #1 ) ;
#109 = EDGE_LOOP ( 'NONE', ( #216 ) ) ;
#110 = DIRECTION ( 'NONE',  ( 0.0000000000000000000, 1.000000000000000000, 0.0000000000000000000 ) ) ;
#111 = CC_DESIGN_PERSON_AND_ORGANIZATION_ASSIGNMENT ( #7, #120, ( #33 ) ) ;
#112 = CONICAL_SURFACE ( 'NONE', #215, 2.874059892324147825, 0.5235987755982969283 ) ;
#113 = DIRECTION ( 'NONE',  ( 3.491481338843133355E-15, 4.495646024179421087E-16, 1.000000000000000000 ) ) ;
#114 = CONICAL_SURFACE ( 'NONE', #45, 3.104999999999999094, 0.5235987755982940417 ) ;
#115 = FACE_OUTER_BOUND ( 'NONE', #240, .T. ) ;
#116 = VERTEX_POINT ( 'NONE', #191 ) ;
#117 = ADVANCED_FACE ( 'NONE', ( #202 ), #153, .T. ) ;
#118 = DIRECTION ( 'NONE',  ( 1.569646419946677413E-30, -1.000000000000000000, 4.495646024179421087E-16 ) ) ;
#119 = AXIS2_PLACEMENT_3D ( 'NONE', #220, #53, #225 ) ;
#120 = PERSON_AND_ORGANIZATION_ROLE ( 'creator' ) ;
#121 =( NAMED_UNIT ( * ) SI_UNIT ( $, .STERADIAN. ) SOLID_ANGLE_UNIT ( ) );
#122 = APPROVAL_ROLE ( '' ) ;
#123 = CARTESIAN_POINT ( 'NONE',  ( 3.505447264198505636E-13, 2.999999999999985789, 100.4000000000000057 ) ) ;
#124 = APPROVAL_ROLE ( '' ) ;
#125 = PERSON_AND_ORGANIZATION ( #17, #80 ) ;
#126 = PRODUCT_RELATED_PRODUCT_CATEGORY ( 'detail', '', ( #235 ) ) ;
#127 = PRODUCT_DEFINITION_SHAPE ( 'NONE', 'NONE',  #198 ) ;
#128 = CIRCLE ( 'NONE', #50, 2.874059892324147825 ) ;
#129 = DIRECTION ( 'NONE',  ( 0.0000000000000000000, 1.000000000000000000, 0.0000000000000000000 ) ) ;
#130 = FACE_OUTER_BOUND ( 'NONE', #218, .T. ) ;
#131 = EDGE_CURVE ( 'NONE', #24, #24, #138, .T. ) ;
#132 = FACE_OUTER_BOUND ( 'NONE', #147, .T. ) ;
#133 = FACE_OUTER_BOUND ( 'NONE', #184, .T. ) ;
#134 = FACE_OUTER_BOUND ( 'NONE', #31, .T. ) ;
#135 = CARTESIAN_POINT ( 'NONE',  ( 3.505447264198505636E-13, -1.034765919200348261E-14, 100.4000000000000057 ) ) ;
#136 = APPLICATION_PROTOCOL_DEFINITION ( 'international standard', 'config_control_design', 1994, #30 ) ;
#137 = LOCAL_TIME ( 7, 52, 46.00000000000000000, #67 ) ;
#138 = CIRCLE ( 'NONE', #181, 2.999999999999996003 ) ;
#139 = PERSON_AND_ORGANIZATION_ROLE ( 'creator' ) ;
#140 = CARTESIAN_POINT ( 'NONE',  ( 6.218325853231012404E-14, 3.104999999999997318, 17.80999309390950458 ) ) ;
#141 = CALENDAR_DATE ( 2021, 26, 11 ) ;
#142 = CIRCLE ( 'NONE', #101, 3.104999999999989768 ) ;
#143 = APPROVAL_STATUS ( 'not_yet_approved' ) ;
#144 = UNCERTAINTY_MEASURE_WITH_UNIT (LENGTH_MEASURE( 1.000000000000000082E-05 ), #83, 'distance_accuracy_value', 'NONE');
#145 = DATE_AND_TIME ( #150, #188 ) ;
#146 = AXIS2_PLACEMENT_3D ( 'NONE', #56, #34, #76 ) ;
#147 = EDGE_LOOP ( 'NONE', ( #234 ) ) ;
#148 = EDGE_CURVE ( 'NONE', #102, #102, #97, .T. ) ;
#149 = ORIENTED_EDGE ( 'NONE', *, *, #241, .F. ) ;
#150 = CALENDAR_DATE ( 2021, 26, 11 ) ;
#151 = CARTESIAN_POINT ( 'NONE',  ( 3.505447264198505636E-13, -1.034765919200348261E-14, 100.4000000000000057 ) ) ;
#152 = DIRECTION ( 'NONE',  ( -3.491481338843133355E-15, 1.030643345817079849E-16, -1.000000000000000000 ) ) ;
#153 = PLANE ( 'NONE',  #119 ) ;
#154 = ORIENTED_EDGE ( 'NONE', *, *, #35, .T. ) ;
#155 = CARTESIAN_POINT ( 'NONE',  ( 3.943437072783983618E-30, 5.077586123870603817E-31, 1.129445266945233279E-15 ) ) ;
#156 = AXIS2_PLACEMENT_3D ( 'NONE', #94, #200, #32 ) ;
#157 = CARTESIAN_POINT ( 'NONE',  ( 3.526396152231565067E-13, -1.040949779275250653E-14, 101.0000000000000000 ) ) ;
#158 = FACE_BOUND ( 'NONE', #85, .T. ) ;
#159 = DATE_AND_TIME ( #141, #179 ) ;
#160 = AXIS2_PLACEMENT_3D ( 'NONE', #189, #222, #91 ) ;
#161 = CC_DESIGN_DATE_AND_TIME_ASSIGNMENT ( #209, #64, ( #198 ) ) ;
#162 = APPROVAL_ROLE ( '' ) ;
#163 = FACE_OUTER_BOUND ( 'NONE', #219, .T. ) ;
#164 = DIRECTION ( 'NONE',  ( -3.491481338843133355E-15, -4.495646024179421087E-16, -1.000000000000000000 ) ) ;
#165 =( GEOMETRIC_REPRESENTATION_CONTEXT ( 3 ) GLOBAL_UNCERTAINTY_ASSIGNED_CONTEXT ( ( #144 ) ) GLOBAL_UNIT_ASSIGNED_CONTEXT ( ( #83, #180, #121 ) ) REPRESENTATION_CONTEXT ( 'NONE', 'WORKASPACE' ) );
#166 = APPROVAL ( #197, 'UNSPECIFIED' ) ;
#167 = DATE_TIME_ROLE ( 'classification_date' ) ;
#168 = ORIENTED_EDGE ( 'NONE', *, *, #131, .F. ) ;
#169 = CARTESIAN_POINT ( 'NONE',  ( 6.281823795492844412E-14, 2.999999999999988010, 17.99185842870425489 ) ) ;
#170 = ORIENTED_EDGE ( 'NONE', *, *, #28, .F. ) ;
#171 = MANIFOLD_SOLID_BREP ( 'Corps-Déplacer/Copier1[1]', #214 ) ;
#172 = DIRECTION ( 'NONE',  ( -3.491481338843133355E-15, 1.030643345817079849E-16, -1.000000000000000000 ) ) ;
#173 = DIRECTION ( 'NONE',  ( 0.0000000000000000000, 1.000000000000000000, 0.0000000000000000000 ) ) ;
#174 = AXIS2_PLACEMENT_3D ( 'NONE', #95, #78, #92 ) ;
#175 = CYLINDRICAL_SURFACE ( 'NONE', #160, 2.999999999999993339 ) ;
#176 = PERSON_AND_ORGANIZATION ( #17, #80 ) ;
#177 = PERSON_AND_ORGANIZATION_ROLE ( 'classification_officer' ) ;
#178 = ADVANCED_FACE ( 'NONE', ( #242, #133 ), #114, .T. ) ;
#179 = LOCAL_TIME ( 7, 52, 46.00000000000000000, #2 ) ;
#180 =( NAMED_UNIT ( * ) PLANE_ANGLE_UNIT ( ) SI_UNIT ( $, .RADIAN. ) );
#181 = AXIS2_PLACEMENT_3D ( 'NONE', #151, #172, #19 ) ;
#182 = DATE_AND_TIME ( #23, #107 ) ;
#183 = ADVANCED_FACE ( 'NONE', ( #115, #186 ), #16, .T. ) ;
#184 = EDGE_LOOP ( 'NONE', ( #87 ) ) ;
#185 = ORIENTED_EDGE ( 'NONE', *, *, #35, .F. ) ;
#186 = FACE_OUTER_BOUND ( 'NONE', #238, .T. ) ;
#187 = EDGE_LOOP ( 'NONE', ( #154 ) ) ;
#188 = LOCAL_TIME ( 7, 52, 46.00000000000000000, #194 ) ;
#189 = CARTESIAN_POINT ( 'NONE',  ( 0.0000000000000000000, 0.0000000000000000000, 0.0000000000000000000 ) ) ;
#190 = DIRECTION ( 'NONE',  ( -3.491481338843133355E-15, 1.030643345817079849E-16, -1.000000000000000000 ) ) ;
#191 = CARTESIAN_POINT ( 'NONE',  ( -5.678207479149477282E-31, 2.874059892324147825, -1.626303258728256651E-16 ) ) ;
#192 = DIRECTION ( 'NONE',  ( -3.491481338843133355E-15, 1.030643345817079849E-16, -1.000000000000000000 ) ) ;
#193 = PERSON_AND_ORGANIZATION ( #17, #80 ) ;
#194 = COORDINATED_UNIVERSAL_TIME_OFFSET ( 1, 0, .AHEAD. ) ;
#195 = APPLICATION_PROTOCOL_DEFINITION ( 'international standard', 'config_control_design', 1994, #233 ) ;
#196 = PERSON_AND_ORGANIZATION ( #17, #80 ) ;
#197 = APPROVAL_STATUS ( 'not_yet_approved' ) ;
#198 = PRODUCT_DEFINITION ( 'UNKNOWN', '', #33, #84 ) ;
#199 = ORIENTED_EDGE ( 'NONE', *, *, #93, .F. ) ;
#200 = DIRECTION ( 'NONE',  ( -3.491481338843133355E-15, -4.495646024179421087E-16, -1.000000000000000000 ) ) ;
#201 = EDGE_LOOP ( 'NONE', ( #185 ) ) ;
#202 = FACE_OUTER_BOUND ( 'NONE', #236, .T. ) ;
#203 = APPROVAL_PERSON_ORGANIZATION ( #100, #103, #124 ) ;
#204 = AXIS2_PLACEMENT_3D ( 'NONE', #157, #77, #224 ) ;
#205 = EDGE_CURVE ( 'NONE', #6, #6, #228, .T. ) ;
#206 = CARTESIAN_POINT ( 'NONE',  ( 6.218325853231012404E-14, -1.835575087128597814E-15, 17.80999309390950458 ) ) ;
#207 = CARTESIAN_POINT ( 'NONE',  ( 6.218325853231012404E-14, 8.006742464329721423E-15, 17.80999309390950458 ) ) ;
#208 = DIRECTION ( 'NONE',  ( -3.491481338843133355E-15, 1.030643345817079849E-16, -1.000000000000000000 ) ) ;
#209 = DATE_AND_TIME ( #66, #5 ) ;
#210 = MECHANICAL_CONTEXT ( 'NONE', #233, 'mechanical' ) ;
#211 = FACE_BOUND ( 'NONE', #10, .T. ) ;
#212 = APPROVAL_PERSON_ORGANIZATION ( #125, #166, #162 ) ;
#213 = CARTESIAN_POINT ( 'NONE',  ( 1.396592535537253145E-15, 3.104999999999996874, 0.3999999999999999112 ) ) ;
#214 = CLOSED_SHELL ( 'NONE', ( #226, #230, #61, #178, #58 ) ) ;
#215 = AXIS2_PLACEMENT_3D ( 'NONE', #155, #113, #118 ) ;
#216 = ORIENTED_EDGE ( 'NONE', *, *, #205, .T. ) ;
#217 = ADVANCED_BREP_SHAPE_REPRESENTATION ( '341670', ( #171, #4, #86 ), #165 ) ;
#218 = EDGE_LOOP ( 'NONE', ( #12 ) ) ;
#219 = EDGE_LOOP ( 'NONE', ( #90 ) ) ;
#220 = CARTESIAN_POINT ( 'NONE',  ( 6.218325853231011142E-14, 8.006742464329719845E-15, 17.80999309390950103 ) ) ;
#221 = CC_DESIGN_DATE_AND_TIME_ASSIGNMENT ( #145, #167, ( #44 ) ) ;
#222 = DIRECTION ( 'NONE',  ( -3.491481338843133355E-15, 1.030643345817079849E-16, -1.000000000000000000 ) ) ;
#223 = APPROVAL_PERSON_ORGANIZATION ( #3, #232, #122 ) ;
#224 = DIRECTION ( 'NONE',  ( -3.598472008923184252E-31, -1.000000000000000000, -1.030643345817079849E-16 ) ) ;
#225 = DIRECTION ( 'NONE',  ( 1.569646419946677413E-30, -1.000000000000000000, 4.495646024179421087E-16 ) ) ;
#226 = ADVANCED_FACE ( 'NONE', ( #37 ), #243, .T. ) ;
#227 = CARTESIAN_POINT ( 'NONE',  ( 3.526396152231565067E-13, 2.399999999999985700, 101.0000000000000000 ) ) ;
#228 = CIRCLE ( 'NONE', #71, 3.104999999999999094 ) ;
#229 = COORDINATED_UNIVERSAL_TIME_OFFSET ( 1, 0, .AHEAD. ) ;
#230 = ADVANCED_FACE ( 'NONE', ( #158, #134 ), #57, .T. ) ;
#231 = PLANE ( 'NONE',  #174 ) ;
#232 = APPROVAL ( #8, 'UNSPECIFIED' ) ;
#233 = APPLICATION_CONTEXT ( 'configuration controlled 3d designs of mechanical parts and assemblies' ) ;
#234 = ORIENTED_EDGE ( 'NONE', *, *, #131, .T. ) ;
#235 = PRODUCT ( '341670', '341670', '', ( #210 ) ) ;
#236 = EDGE_LOOP ( 'NONE', ( #149 ) ) ;
#237 = DIRECTION ( 'NONE',  ( 3.598472008923184252E-31, 1.000000000000000000, 1.030643345817079849E-16 ) ) ;
#238 = EDGE_LOOP ( 'NONE', ( #199 ) ) ;
#239 = CIRCLE ( 'NONE', #65, 2.999999999999989786 ) ;
#240 = EDGE_LOOP ( 'NONE', ( #29 ) ) ;
#241 = EDGE_CURVE ( 'NONE', #47, #47, #142, .T. ) ;
#242 = FACE_BOUND ( 'NONE', #187, .T. ) ;
#243 = PLANE ( 'NONE',  #204 ) ;
ENDSEC;
END-ISO-10303-21;
