ISO-10303-21;
HEADER;
FILE_DESCRIPTION (( 'STEP AP203' ),
    '1' );
FILE_NAME ('3414.step',
    '2021-12-06T12:58:51',
    ( '' ),
    ( '' ),
    'SwSTEP 2.0',
    'SolidWorks 2019',
    '' );
FILE_SCHEMA (( 'CONFIG_CONTROL_DESIGN' ));
ENDSEC;

DATA;
#1 = DIRECTION ( 'NONE',  ( 3.851859888774471706E-31, 1.000000000000000000, 1.084202172485504434E-16 ) ) ;
#2 = CARTESIAN_POINT ( 'NONE',  ( 0.0000000000000000000, 0.0000000000000000000, 0.0000000000000000000 ) ) ;
#3 = DIRECTION ( 'NONE',  ( 4.275831445896957731E-31, 1.000000000000000000, 1.224646799147352961E-16 ) ) ;
#4 = CIRCLE ( 'NONE', #74, 12.50000000000000000 ) ;
#5 =( LENGTH_UNIT ( ) NAMED_UNIT ( * ) SI_UNIT ( .MILLI., .METRE. ) );
#6 = PERSON_AND_ORGANIZATION_ROLE ( 'design_supplier' ) ;
#7 = LOCAL_TIME ( 13, 58, 51.00000000000000000, #36 ) ;
#8 = COORDINATED_UNIVERSAL_TIME_OFFSET ( 1, 0, .AHEAD. ) ;
#9 = CIRCLE ( 'NONE', #38, 12.50000000000000000 ) ;
#10 = PRODUCT ( '3414', '3414', '', ( #20 ) ) ;
#11 = MANIFOLD_SOLID_BREP ( 'Corps-Déplacer/Copier1', #62 ) ;
#12 = ORIENTED_EDGE ( 'NONE', *, *, #66, .T. ) ;
#13 = FACE_OUTER_BOUND ( 'NONE', #137, .T. ) ;
#14 = AXIS2_PLACEMENT_3D ( 'NONE', #162, #40, #125 ) ;
#15 = DIRECTION ( 'NONE',  ( -3.491481338843133355E-15, 1.224646799147352961E-16, -1.000000000000000000 ) ) ;
#16 = LOCAL_TIME ( 13, 58, 51.00000000000000000, #8 ) ;
#17 = DIRECTION ( 'NONE',  ( -3.491481338843133355E-15, 1.224646799147352961E-16, -1.000000000000000000 ) ) ;
#18 = CARTESIAN_POINT ( 'NONE',  ( 6.284666409917634517E-15, -2.204364238465233604E-16, 1.799999999999998490 ) ) ;
#19 = CARTESIAN_POINT ( 'NONE',  ( 6.284666409917640040E-15, 12.50000000000000000, 1.800000000000000044 ) ) ;
#20 = MECHANICAL_CONTEXT ( 'NONE', #77, 'mechanical' ) ;
#21 = DATE_TIME_ROLE ( 'classification_date' ) ;
#22 = LOCAL_TIME ( 13, 58, 51.00000000000000000, #85 ) ;
#23 = DATE_TIME_ROLE ( 'creation_date' ) ;
#24 = COORDINATED_UNIVERSAL_TIME_OFFSET ( 1, 0, .AHEAD. ) ;
#25 = PRODUCT_DEFINITION ( 'UNKNOWN', '', #106, #45 ) ;
#26 = CARTESIAN_POINT ( 'NONE',  ( 3.421138828918010427E-46, 4.000000000000000000, 0.0000000000000000000 ) ) ;
#27 = ORIENTED_EDGE ( 'NONE', *, *, #39, .T. ) ;
#28 = EDGE_LOOP ( 'NONE', ( #27 ) ) ;
#29 = DIRECTION ( 'NONE',  ( 0.0000000000000000000, 0.0000000000000000000, 1.000000000000000000 ) ) ;
#30 = APPROVAL_PERSON_ORGANIZATION ( #58, #131, #43 ) ;
#31 = PLANE ( 'NONE',  #14 ) ;
#32 = CYLINDRICAL_SURFACE ( 'NONE', #141, 12.50000000000000000 ) ;
#33 = CARTESIAN_POINT ( 'NONE',  ( 6.842277657836020854E-46, 12.50000000000000000, 0.0000000000000000000 ) ) ;
#34 = CIRCLE ( 'NONE', #103, 4.000000000000000000 ) ;
#35 = APPROVAL_DATE_TIME ( #119, #61 ) ;
#36 = COORDINATED_UNIVERSAL_TIME_OFFSET ( 1, 0, .AHEAD. ) ;
#37 = PERSON_AND_ORGANIZATION_ROLE ( 'creator' ) ;
#38 = AXIS2_PLACEMENT_3D ( 'NONE', #139, #94, #79 ) ;
#39 = EDGE_CURVE ( 'NONE', #109, #109, #34, .T. ) ;
#40 = DIRECTION ( 'NONE',  ( 3.491481338843133355E-15, -1.224646799147352961E-16, 1.000000000000000000 ) ) ;
#41 =( NAMED_UNIT ( * ) PLANE_ANGLE_UNIT ( ) SI_UNIT ( $, .RADIAN. ) );
#42 = FACE_OUTER_BOUND ( 'NONE', #60, .T. ) ;
#43 = APPROVAL_ROLE ( '' ) ;
#44 = PERSON_AND_ORGANIZATION ( #69, #97 ) ;
#45 = DESIGN_CONTEXT ( 'detailed design', #88, 'design' ) ;
#46 = DATE_AND_TIME ( #155, #7 ) ;
#47 = PERSON_AND_ORGANIZATION ( #69, #97 ) ;
#48 = CC_DESIGN_APPROVAL ( #131, ( #106 ) ) ;
#49 = EDGE_LOOP ( 'NONE', ( #147 ) ) ;
#50 = CC_DESIGN_PERSON_AND_ORGANIZATION_ASSIGNMENT ( #44, #167, ( #71 ) ) ;
#51 = CARTESIAN_POINT ( 'NONE',  ( 6.284666409917640040E-15, 4.000000000000000000, 1.800000000000000044 ) ) ;
#52 = DIRECTION ( 'NONE',  ( -3.491481338843133355E-15, 1.224646799147352961E-16, -1.000000000000000000 ) ) ;
#53 = CARTESIAN_POINT ( 'NONE',  ( -1.817228364506207014E-30, 4.000000000000000000, -5.204748896376249713E-16 ) ) ;
#54 = CARTESIAN_POINT ( 'NONE',  ( 0.0000000000000000000, 0.0000000000000000000, 0.0000000000000000000 ) ) ;
#55 = APPROVAL_DATE_TIME ( #130, #135 ) ;
#56 = EDGE_LOOP ( 'NONE', ( #157 ) ) ;
#57 = AXIS2_PLACEMENT_3D ( 'NONE', #53, #52, #81 ) ;
#58 = PERSON_AND_ORGANIZATION ( #69, #97 ) ;
#59 = CC_DESIGN_DATE_AND_TIME_ASSIGNMENT ( #120, #21, ( #71 ) ) ;
#60 = EDGE_LOOP ( 'NONE', ( #12 ) ) ;
#61 = APPROVAL ( #99, 'UNSPECIFIED' ) ;
#62 = CLOSED_SHELL ( 'NONE', ( #105, #93, #76, #100 ) ) ;
#63 = DIRECTION ( 'NONE',  ( -3.491481338843133355E-15, 1.224646799147352961E-16, -1.000000000000000000 ) ) ;
#64 = CC_DESIGN_APPROVAL ( #61, ( #25 ) ) ;
#65 = VERTEX_POINT ( 'NONE', #33 ) ;
#66 = EDGE_CURVE ( 'NONE', #91, #91, #82, .T. ) ;
#67 = CC_DESIGN_DATE_AND_TIME_ASSIGNMENT ( #46, #23, ( #25 ) ) ;
#68 = DATE_AND_TIME ( #116, #128 ) ;
#69 = PERSON ( 'UNSPECIFIED', 'UNSPECIFIED', 'UNSPECIFIED', ('UNSPECIFIED'), ('UNSPECIFIED'), ('UNSPECIFIED') ) ;
#70 = PERSON_AND_ORGANIZATION ( #69, #97 ) ;
#71 = SECURITY_CLASSIFICATION ( '', '', #84 ) ;
#72 = APPROVAL_ROLE ( '' ) ;
#73 = APPROVAL_STATUS ( 'not_yet_approved' ) ;
#74 = AXIS2_PLACEMENT_3D ( 'NONE', #18, #163, #78 ) ;
#75 = CC_DESIGN_SECURITY_CLASSIFICATION ( #71, ( #106 ) ) ;
#76 = ADVANCED_FACE ( 'NONE', ( #126, #149 ), #31, .T. ) ;
#77 = APPLICATION_CONTEXT ( 'configuration controlled 3d designs of mechanical parts and assemblies' ) ;
#78 = DIRECTION ( 'NONE',  ( 4.314083075427408311E-31, 1.000000000000000000, 1.214306433183764966E-16 ) ) ;
#79 = DIRECTION ( 'NONE',  ( 4.275831445896957731E-31, 1.000000000000000000, 1.224646799147352961E-16 ) ) ;
#80 = CARTESIAN_POINT ( 'NONE',  ( 0.0000000000000000000, 0.0000000000000000000, 0.0000000000000000000 ) ) ;
#81 = DIRECTION ( 'NONE',  ( 4.275831445896957731E-31, 1.000000000000000000, 1.224646799147352961E-16 ) ) ;
#82 = CIRCLE ( 'NONE', #121, 4.000000000000000000 ) ;
#83 = CC_DESIGN_APPROVAL ( #135, ( #71 ) ) ;
#84 = SECURITY_CLASSIFICATION_LEVEL ( 'unclassified' ) ;
#85 = COORDINATED_UNIVERSAL_TIME_OFFSET ( 1, 0, .AHEAD. ) ;
#86 = APPROVAL_DATE_TIME ( #68, #131 ) ;
#87 = APPROVAL_ROLE ( '' ) ;
#88 = APPLICATION_CONTEXT ( 'configuration controlled 3d designs of mechanical parts and assemblies' ) ;
#89 = CC_DESIGN_PERSON_AND_ORGANIZATION_ASSIGNMENT ( #127, #6, ( #106 ) ) ;
#90 = EDGE_LOOP ( 'NONE', ( #92 ) ) ;
#91 = VERTEX_POINT ( 'NONE', #26 ) ;
#92 = ORIENTED_EDGE ( 'NONE', *, *, #133, .F. ) ;
#93 = ADVANCED_FACE ( 'NONE', ( #115, #159 ), #32, .T. ) ;
#94 = DIRECTION ( 'NONE',  ( -3.491481338843133355E-15, 1.224646799147352961E-16, -1.000000000000000000 ) ) ;
#95 = EDGE_CURVE ( 'NONE', #160, #160, #4, .T. ) ;
#96 =( NAMED_UNIT ( * ) SI_UNIT ( $, .STERADIAN. ) SOLID_ANGLE_UNIT ( ) );
#97 = ORGANIZATION ( 'UNSPECIFIED', 'UNSPECIFIED', '' ) ;
#98 = PRODUCT_DEFINITION_SHAPE ( 'NONE', 'NONE',  #25 ) ;
#99 = APPROVAL_STATUS ( 'not_yet_approved' ) ;
#100 = ADVANCED_FACE ( 'NONE', ( #42, #161 ), #134, .F. ) ;
#101 = CALENDAR_DATE ( 2021, 6, 12 ) ;
#102 = UNCERTAINTY_MEASURE_WITH_UNIT (LENGTH_MEASURE( 1.000000000000000082E-05 ), #5, 'distance_accuracy_value', 'NONE');
#103 = AXIS2_PLACEMENT_3D ( 'NONE', #111, #15, #1 ) ;
#104 = CALENDAR_DATE ( 2021, 6, 12 ) ;
#105 = ADVANCED_FACE ( 'NONE', ( #13, #152 ), #140, .T. ) ;
#106 = PRODUCT_DEFINITION_FORMATION_WITH_SPECIFIED_SOURCE ( 'ANY', '', #10, .NOT_KNOWN. ) ;
#107 = EDGE_LOOP ( 'NONE', ( #132 ) ) ;
#108 = ORIENTED_EDGE ( 'NONE', *, *, #133, .T. ) ;
#109 = VERTEX_POINT ( 'NONE', #51 ) ;
#110 =( GEOMETRIC_REPRESENTATION_CONTEXT ( 3 ) GLOBAL_UNCERTAINTY_ASSIGNED_CONTEXT ( ( #102 ) ) GLOBAL_UNIT_ASSIGNED_CONTEXT ( ( #5, #41, #96 ) ) REPRESENTATION_CONTEXT ( 'NONE', 'WORKASPACE' ) );
#111 = CARTESIAN_POINT ( 'NONE',  ( 6.284666409917638462E-15, -2.204364238465234590E-16, 1.799999999999999600 ) ) ;
#112 = EDGE_LOOP ( 'NONE', ( #114 ) ) ;
#113 = DIRECTION ( 'NONE',  ( -3.491481338843133355E-15, 1.224646799147352961E-16, -1.000000000000000000 ) ) ;
#114 = ORIENTED_EDGE ( 'NONE', *, *, #66, .F. ) ;
#115 = FACE_OUTER_BOUND ( 'NONE', #56, .T. ) ;
#116 = CALENDAR_DATE ( 2021, 6, 12 ) ;
#117 = SHAPE_DEFINITION_REPRESENTATION ( #98, #146 ) ;
#118 = PERSON_AND_ORGANIZATION ( #69, #97 ) ;
#119 = DATE_AND_TIME ( #142, #145 ) ;
#120 = DATE_AND_TIME ( #104, #22 ) ;
#121 = AXIS2_PLACEMENT_3D ( 'NONE', #169, #63, #138 ) ;
#122 = DIRECTION ( 'NONE',  ( 4.275831445896957731E-31, 1.000000000000000000, 1.224646799147352961E-16 ) ) ;
#123 = APPROVAL_PERSON_ORGANIZATION ( #70, #61, #87 ) ;
#124 = CC_DESIGN_PERSON_AND_ORGANIZATION_ASSIGNMENT ( #47, #37, ( #106 ) ) ;
#125 = DIRECTION ( 'NONE',  ( -4.275831445896957731E-31, -1.000000000000000000, -1.224646799147352961E-16 ) ) ;
#126 = FACE_BOUND ( 'NONE', #28, .T. ) ;
#127 = PERSON_AND_ORGANIZATION ( #69, #97 ) ;
#128 = LOCAL_TIME ( 13, 58, 51.00000000000000000, #144 ) ;
#129 = PERSON_AND_ORGANIZATION ( #69, #97 ) ;
#130 = DATE_AND_TIME ( #101, #16 ) ;
#131 = APPROVAL ( #166, 'UNSPECIFIED' ) ;
#132 = ORIENTED_EDGE ( 'NONE', *, *, #95, .F. ) ;
#133 = EDGE_CURVE ( 'NONE', #65, #65, #9, .T. ) ;
#134 = CYLINDRICAL_SURFACE ( 'NONE', #158, 4.000000000000000000 ) ;
#135 = APPROVAL ( #73, 'UNSPECIFIED' ) ;
#136 = DIRECTION ( 'NONE',  ( 1.000000000000000000, 0.0000000000000000000, 0.0000000000000000000 ) ) ;
#137 = EDGE_LOOP ( 'NONE', ( #108 ) ) ;
#138 = DIRECTION ( 'NONE',  ( 4.275831445896957731E-31, 1.000000000000000000, 1.224646799147352961E-16 ) ) ;
#139 = CARTESIAN_POINT ( 'NONE',  ( -5.344789307371196769E-30, 1.874699728327321462E-31, -1.530808498934191127E-15 ) ) ;
#140 = PLANE ( 'NONE',  #57 ) ;
#141 = AXIS2_PLACEMENT_3D ( 'NONE', #80, #113, #122 ) ;
#142 = CALENDAR_DATE ( 2021, 6, 12 ) ;
#143 = PRODUCT_RELATED_PRODUCT_CATEGORY ( 'detail', '', ( #10 ) ) ;
#144 = COORDINATED_UNIVERSAL_TIME_OFFSET ( 1, 0, .AHEAD. ) ;
#145 = LOCAL_TIME ( 13, 58, 51.00000000000000000, #24 ) ;
#146 = ADVANCED_BREP_SHAPE_REPRESENTATION ( '3414', ( #11, #168 ), #110 ) ;
#147 = ORIENTED_EDGE ( 'NONE', *, *, #39, .F. ) ;
#148 = CC_DESIGN_PERSON_AND_ORGANIZATION_ASSIGNMENT ( #118, #153, ( #25 ) ) ;
#149 = FACE_OUTER_BOUND ( 'NONE', #107, .T. ) ;
#150 = APPLICATION_PROTOCOL_DEFINITION ( 'international standard', 'config_control_design', 1994, #77 ) ;
#151 = CC_DESIGN_PERSON_AND_ORGANIZATION_ASSIGNMENT ( #165, #164, ( #10 ) ) ;
#152 = FACE_BOUND ( 'NONE', #112, .T. ) ;
#153 = PERSON_AND_ORGANIZATION_ROLE ( 'creator' ) ;
#154 = APPLICATION_PROTOCOL_DEFINITION ( 'international standard', 'config_control_design', 1994, #88 ) ;
#155 = CALENDAR_DATE ( 2021, 6, 12 ) ;
#156 = APPROVAL_PERSON_ORGANIZATION ( #129, #135, #72 ) ;
#157 = ORIENTED_EDGE ( 'NONE', *, *, #95, .T. ) ;
#158 = AXIS2_PLACEMENT_3D ( 'NONE', #54, #17, #3 ) ;
#159 = FACE_OUTER_BOUND ( 'NONE', #90, .T. ) ;
#160 = VERTEX_POINT ( 'NONE', #19 ) ;
#161 = FACE_OUTER_BOUND ( 'NONE', #49, .T. ) ;
#162 = CARTESIAN_POINT ( 'NONE',  ( 6.284666409917638462E-15, 4.000000000000000000, 1.799999999999999600 ) ) ;
#163 = DIRECTION ( 'NONE',  ( -3.491481338843133355E-15, 1.224646799147352961E-16, -1.000000000000000000 ) ) ;
#164 = PERSON_AND_ORGANIZATION_ROLE ( 'design_owner' ) ;
#165 = PERSON_AND_ORGANIZATION ( #69, #97 ) ;
#166 = APPROVAL_STATUS ( 'not_yet_approved' ) ;
#167 = PERSON_AND_ORGANIZATION_ROLE ( 'classification_officer' ) ;
#168 = AXIS2_PLACEMENT_3D ( 'NONE', #2, #29, #136 ) ;
#169 = CARTESIAN_POINT ( 'NONE',  ( -1.710332578358782742E-30, 5.999039130647427147E-32, -4.898587196589411843E-16 ) ) ;
ENDSEC;
END-ISO-10303-21;
