ISO-10303-21;
HEADER;
FILE_DESCRIPTION (( 'STEP AP203' ),
    '1' );
FILE_NAME ('3413.step',
    '2021-12-06T12:58:51',
    ( '' ),
    ( '' ),
    'SwSTEP 2.0',
    'SolidWorks 2019',
    '' );
FILE_SCHEMA (( 'CONFIG_CONTROL_DESIGN' ));
ENDSEC;

DATA;
#1 = COORDINATED_UNIVERSAL_TIME_OFFSET ( 1, 0, .AHEAD. ) ;
#2 = DIRECTION ( 'NONE',  ( 4.275831445896958607E-31, 1.000000000000000000, 1.224646799147353207E-16 ) ) ;
#3 = CARTESIAN_POINT ( 'NONE',  ( 5.586370142149012580E-15, -1.959434878635764737E-16, 1.599999999999999645 ) ) ;
#4 = APPROVAL_STATUS ( 'not_yet_approved' ) ;
#5 = EDGE_LOOP ( 'NONE', ( #42 ) ) ;
#6 = APPLICATION_CONTEXT ( 'configuration controlled 3d designs of mechanical parts and assemblies' ) ;
#7 = UNCERTAINTY_MEASURE_WITH_UNIT (LENGTH_MEASURE( 1.000000000000000082E-05 ), #39, 'distance_accuracy_value', 'NONE');
#8 = DIRECTION ( 'NONE',  ( -3.491481338843133355E-15, 1.224646799147353207E-16, -1.000000000000000000 ) ) ;
#9 = MECHANICAL_CONTEXT ( 'NONE', #6, 'mechanical' ) ;
#10 = APPROVAL_STATUS ( 'not_yet_approved' ) ;
#11 = VERTEX_POINT ( 'NONE', #94 ) ;
#12 = APPROVAL_ROLE ( '' ) ;
#13 = CARTESIAN_POINT ( 'NONE',  ( 5.586370142149014157E-15, 4.000000000000000000, 1.600000000000000089 ) ) ;
#14 = APPROVAL_ROLE ( '' ) ;
#15 = ORIENTED_EDGE ( 'NONE', *, *, #19, .T. ) ;
#16 = CC_DESIGN_SECURITY_CLASSIFICATION ( #73, ( #98 ) ) ;
#17 = CARTESIAN_POINT ( 'NONE',  ( 3.421138828918010427E-46, 4.000000000000000000, 0.0000000000000000000 ) ) ;
#18 = EDGE_LOOP ( 'NONE', ( #140 ) ) ;
#19 = EDGE_CURVE ( 'NONE', #156, #156, #121, .T. ) ;
#20 = CIRCLE ( 'NONE', #43, 12.50000000000000000 ) ;
#21 =( GEOMETRIC_REPRESENTATION_CONTEXT ( 3 ) GLOBAL_UNCERTAINTY_ASSIGNED_CONTEXT ( ( #7 ) ) GLOBAL_UNIT_ASSIGNED_CONTEXT ( ( #39, #63, #111 ) ) REPRESENTATION_CONTEXT ( 'NONE', 'WORKASPACE' ) );
#22 = CLOSED_SHELL ( 'NONE', ( #125, #114, #97, #153 ) ) ;
#23 = DIRECTION ( 'NONE',  ( 4.275831445896958607E-31, 1.000000000000000000, 1.224646799147353207E-16 ) ) ;
#24 = PERSON_AND_ORGANIZATION_ROLE ( 'design_owner' ) ;
#25 = VERTEX_POINT ( 'NONE', #17 ) ;
#26 = APPROVAL_DATE_TIME ( #115, #105 ) ;
#27 = CARTESIAN_POINT ( 'NONE',  ( 5.586370142149008635E-15, -1.959434878635763258E-16, 1.599999999999998535 ) ) ;
#28 = AXIS2_PLACEMENT_3D ( 'NONE', #70, #117, #2 ) ;
#29 = COORDINATED_UNIVERSAL_TIME_OFFSET ( 1, 0, .AHEAD. ) ;
#30 = DIRECTION ( 'NONE',  ( 3.491481338843133355E-15, -1.224646799147353207E-16, 1.000000000000000000 ) ) ;
#31 = CC_DESIGN_APPROVAL ( #105, ( #98 ) ) ;
#32 = CC_DESIGN_PERSON_AND_ORGANIZATION_ASSIGNMENT ( #133, #34, ( #98 ) ) ;
#33 = FACE_OUTER_BOUND ( 'NONE', #123, .T. ) ;
#34 = PERSON_AND_ORGANIZATION_ROLE ( 'design_supplier' ) ;
#35 = ORIENTED_EDGE ( 'NONE', *, *, #110, .F. ) ;
#36 = SHAPE_DEFINITION_REPRESENTATION ( #60, #51 ) ;
#37 = PERSON_AND_ORGANIZATION_ROLE ( 'creator' ) ;
#38 = CALENDAR_DATE ( 2021, 6, 12 ) ;
#39 =( LENGTH_UNIT ( ) NAMED_UNIT ( * ) SI_UNIT ( .MILLI., .METRE. ) );
#40 = APPLICATION_CONTEXT ( 'configuration controlled 3d designs of mechanical parts and assemblies' ) ;
#41 = CARTESIAN_POINT ( 'NONE',  ( 0.0000000000000000000, 12.50000000000000000, 0.0000000000000000000 ) ) ;
#42 = ORIENTED_EDGE ( 'NONE', *, *, #64, .F. ) ;
#43 = AXIS2_PLACEMENT_3D ( 'NONE', #107, #127, #91 ) ;
#44 = LOCAL_TIME ( 13, 58, 51.00000000000000000, #1 ) ;
#45 = DESIGN_CONTEXT ( 'detailed design', #40, 'design' ) ;
#46 = AXIS2_PLACEMENT_3D ( 'NONE', #108, #132, #61 ) ;
#47 = CC_DESIGN_APPROVAL ( #75, ( #73 ) ) ;
#48 = DIRECTION ( 'NONE',  ( 1.000000000000000000, 0.0000000000000000000, 0.0000000000000000000 ) ) ;
#49 = CC_DESIGN_PERSON_AND_ORGANIZATION_ASSIGNMENT ( #62, #24, ( #167 ) ) ;
#50 = COORDINATED_UNIVERSAL_TIME_OFFSET ( 1, 0, .AHEAD. ) ;
#51 = ADVANCED_BREP_SHAPE_REPRESENTATION ( '3413', ( #99, #164 ), #21 ) ;
#52 = APPROVAL_DATE_TIME ( #86, #130 ) ;
#53 = EDGE_LOOP ( 'NONE', ( #15 ) ) ;
#54 = DATE_TIME_ROLE ( 'classification_date' ) ;
#55 = DIRECTION ( 'NONE',  ( -3.491481338843133355E-15, 1.224646799147353207E-16, -1.000000000000000000 ) ) ;
#56 = LOCAL_TIME ( 13, 58, 51.00000000000000000, #50 ) ;
#57 = ORIENTED_EDGE ( 'NONE', *, *, #19, .F. ) ;
#58 = CC_DESIGN_PERSON_AND_ORGANIZATION_ASSIGNMENT ( #168, #37, ( #85 ) ) ;
#59 = CARTESIAN_POINT ( 'NONE',  ( 0.0000000000000000000, 0.0000000000000000000, 0.0000000000000000000 ) ) ;
#60 = PRODUCT_DEFINITION_SHAPE ( 'NONE', 'NONE',  #85 ) ;
#61 = DIRECTION ( 'NONE',  ( 4.275831445896958607E-31, 1.000000000000000000, 1.224646799147353207E-16 ) ) ;
#62 = PERSON_AND_ORGANIZATION ( #142, #138 ) ;
#63 =( NAMED_UNIT ( * ) PLANE_ANGLE_UNIT ( ) SI_UNIT ( $, .RADIAN. ) );
#64 = EDGE_CURVE ( 'NONE', #25, #25, #166, .T. ) ;
#65 = PERSON_AND_ORGANIZATION_ROLE ( 'classification_officer' ) ;
#66 = DIRECTION ( 'NONE',  ( -3.491481338843133355E-15, 1.224646799147353207E-16, -1.000000000000000000 ) ) ;
#67 = PERSON_AND_ORGANIZATION ( #142, #138 ) ;
#68 = FACE_OUTER_BOUND ( 'NONE', #159, .T. ) ;
#69 = COORDINATED_UNIVERSAL_TIME_OFFSET ( 1, 0, .AHEAD. ) ;
#70 = CARTESIAN_POINT ( 'NONE',  ( 0.0000000000000000000, 0.0000000000000000000, 0.0000000000000000000 ) ) ;
#71 = AXIS2_PLACEMENT_3D ( 'NONE', #3, #55, #154 ) ;
#72 = ORIENTED_EDGE ( 'NONE', *, *, #110, .T. ) ;
#73 = SECURITY_CLASSIFICATION ( '', '', #118 ) ;
#74 = CIRCLE ( 'NONE', #112, 12.50000000000000000 ) ;
#75 = APPROVAL ( #10, 'UNSPECIFIED' ) ;
#76 = CC_DESIGN_PERSON_AND_ORGANIZATION_ASSIGNMENT ( #155, #148, ( #98 ) ) ;
#77 = APPROVAL_PERSON_ORGANIZATION ( #120, #105, #81 ) ;
#78 = LOCAL_TIME ( 13, 58, 51.00000000000000000, #29 ) ;
#79 = CALENDAR_DATE ( 2021, 6, 12 ) ;
#80 = FACE_BOUND ( 'NONE', #53, .T. ) ;
#81 = APPROVAL_ROLE ( '' ) ;
#82 = CYLINDRICAL_SURFACE ( 'NONE', #28, 4.000000000000000000 ) ;
#83 = EDGE_LOOP ( 'NONE', ( #57 ) ) ;
#84 = DIRECTION ( 'NONE',  ( 0.0000000000000000000, 0.0000000000000000000, 1.000000000000000000 ) ) ;
#85 = PRODUCT_DEFINITION ( 'UNKNOWN', '', #98, #45 ) ;
#86 = DATE_AND_TIME ( #104, #44 ) ;
#87 = DATE_TIME_ROLE ( 'creation_date' ) ;
#88 = DIRECTION ( 'NONE',  ( -4.275831445896958607E-31, -1.000000000000000000, -1.224646799147353207E-16 ) ) ;
#89 = APPROVAL_STATUS ( 'not_yet_approved' ) ;
#90 = DATE_AND_TIME ( #79, #56 ) ;
#91 = DIRECTION ( 'NONE',  ( 4.275831445896958607E-31, 1.000000000000000000, 1.224646799147353207E-16 ) ) ;
#92 = PLANE ( 'NONE',  #96 ) ;
#93 = PRODUCT_RELATED_PRODUCT_CATEGORY ( 'detail', '', ( #167 ) ) ;
#94 = CARTESIAN_POINT ( 'NONE',  ( 5.586370142149014157E-15, 12.50000000000000000, 1.600000000000000089 ) ) ;
#95 = EDGE_LOOP ( 'NONE', ( #72 ) ) ;
#96 = AXIS2_PLACEMENT_3D ( 'NONE', #137, #30, #88 ) ;
#97 = ADVANCED_FACE ( 'NONE', ( #80, #33 ), #92, .T. ) ;
#98 = PRODUCT_DEFINITION_FORMATION_WITH_SPECIFIED_SOURCE ( 'ANY', '', #167, .NOT_KNOWN. ) ;
#99 = MANIFOLD_SOLID_BREP ( 'Corps-Déplacer/Copier1', #22 ) ;
#100 = APPLICATION_PROTOCOL_DEFINITION ( 'international standard', 'config_control_design', 1994, #6 ) ;
#101 = PERSON_AND_ORGANIZATION ( #142, #138 ) ;
#102 = CARTESIAN_POINT ( 'NONE',  ( 0.0000000000000000000, 0.0000000000000000000, 0.0000000000000000000 ) ) ;
#103 = ORIENTED_EDGE ( 'NONE', *, *, #165, .T. ) ;
#104 = CALENDAR_DATE ( 2021, 6, 12 ) ;
#105 = APPROVAL ( #4, 'UNSPECIFIED' ) ;
#106 = CALENDAR_DATE ( 2021, 6, 12 ) ;
#107 = CARTESIAN_POINT ( 'NONE',  ( -5.344789307371198171E-30, 1.874699728327322119E-31, -1.530808498934191521E-15 ) ) ;
#108 = CARTESIAN_POINT ( 'NONE',  ( -1.710332578358783092E-30, 5.999039130647430431E-32, -4.898587196589412829E-16 ) ) ;
#109 = APPROVAL_PERSON_ORGANIZATION ( #67, #75, #14 ) ;
#110 = EDGE_CURVE ( 'NONE', #119, #119, #20, .T. ) ;
#111 =( NAMED_UNIT ( * ) SI_UNIT ( $, .STERADIAN. ) SOLID_ANGLE_UNIT ( ) );
#112 = AXIS2_PLACEMENT_3D ( 'NONE', #27, #66, #129 ) ;
#113 = ORIENTED_EDGE ( 'NONE', *, *, #165, .F. ) ;
#114 = ADVANCED_FACE ( 'NONE', ( #162, #68 ), #144, .T. ) ;
#115 = DATE_AND_TIME ( #106, #145 ) ;
#116 = DIRECTION ( 'NONE',  ( -3.491481338843133355E-15, 1.224646799147353207E-16, -1.000000000000000000 ) ) ;
#117 = DIRECTION ( 'NONE',  ( -3.491481338843133355E-15, 1.224646799147353207E-16, -1.000000000000000000 ) ) ;
#118 = SECURITY_CLASSIFICATION_LEVEL ( 'unclassified' ) ;
#119 = VERTEX_POINT ( 'NONE', #41 ) ;
#120 = PERSON_AND_ORGANIZATION ( #142, #138 ) ;
#121 = CIRCLE ( 'NONE', #71, 4.000000000000000000 ) ;
#122 = APPROVAL_PERSON_ORGANIZATION ( #101, #130, #12 ) ;
#123 = EDGE_LOOP ( 'NONE', ( #113 ) ) ;
#124 = AXIS2_PLACEMENT_3D ( 'NONE', #147, #116, #151 ) ;
#125 = ADVANCED_FACE ( 'NONE', ( #152, #160 ), #158, .T. ) ;
#126 = APPLICATION_PROTOCOL_DEFINITION ( 'international standard', 'config_control_design', 1994, #40 ) ;
#127 = DIRECTION ( 'NONE',  ( -3.491481338843133355E-15, 1.224646799147353207E-16, -1.000000000000000000 ) ) ;
#128 = CC_DESIGN_PERSON_AND_ORGANIZATION_ASSIGNMENT ( #139, #65, ( #73 ) ) ;
#129 = DIRECTION ( 'NONE',  ( 4.314083075427408311E-31, 1.000000000000000000, 1.214306433183764966E-16 ) ) ;
#130 = APPROVAL ( #89, 'UNSPECIFIED' ) ;
#131 = APPROVAL_DATE_TIME ( #146, #75 ) ;
#132 = DIRECTION ( 'NONE',  ( -3.491481338843133355E-15, 1.224646799147353207E-16, -1.000000000000000000 ) ) ;
#133 = PERSON_AND_ORGANIZATION ( #142, #138 ) ;
#134 = FACE_OUTER_BOUND ( 'NONE', #18, .T. ) ;
#135 = LOCAL_TIME ( 13, 58, 51.00000000000000000, #69 ) ;
#136 = CALENDAR_DATE ( 2021, 6, 12 ) ;
#137 = CARTESIAN_POINT ( 'NONE',  ( 5.586370142149012580E-15, 4.000000000000000000, 1.599999999999999645 ) ) ;
#138 = ORGANIZATION ( 'UNSPECIFIED', 'UNSPECIFIED', '' ) ;
#139 = PERSON_AND_ORGANIZATION ( #142, #138 ) ;
#140 = ORIENTED_EDGE ( 'NONE', *, *, #64, .T. ) ;
#141 = CC_DESIGN_DATE_AND_TIME_ASSIGNMENT ( #90, #87, ( #85 ) ) ;
#142 = PERSON ( 'UNSPECIFIED', 'UNSPECIFIED', 'UNSPECIFIED', ('UNSPECIFIED'), ('UNSPECIFIED'), ('UNSPECIFIED') ) ;
#143 = CC_DESIGN_DATE_AND_TIME_ASSIGNMENT ( #150, #54, ( #73 ) ) ;
#144 = CYLINDRICAL_SURFACE ( 'NONE', #169, 12.50000000000000000 ) ;
#145 = LOCAL_TIME ( 13, 58, 51.00000000000000000, #161 ) ;
#146 = DATE_AND_TIME ( #136, #135 ) ;
#147 = CARTESIAN_POINT ( 'NONE',  ( -1.817228364506207364E-30, 4.000000000000000000, -5.204748896376250699E-16 ) ) ;
#148 = PERSON_AND_ORGANIZATION_ROLE ( 'creator' ) ;
#149 = FACE_OUTER_BOUND ( 'NONE', #83, .T. ) ;
#150 = DATE_AND_TIME ( #38, #78 ) ;
#151 = DIRECTION ( 'NONE',  ( 4.275831445896958607E-31, 1.000000000000000000, 1.224646799147353207E-16 ) ) ;
#152 = FACE_OUTER_BOUND ( 'NONE', #95, .T. ) ;
#153 = ADVANCED_FACE ( 'NONE', ( #134, #149 ), #82, .F. ) ;
#154 = DIRECTION ( 'NONE',  ( 3.851859888774471706E-31, 1.000000000000000000, 1.084202172485504434E-16 ) ) ;
#155 = PERSON_AND_ORGANIZATION ( #142, #138 ) ;
#156 = VERTEX_POINT ( 'NONE', #13 ) ;
#157 = EDGE_LOOP ( 'NONE', ( #103 ) ) ;
#158 = PLANE ( 'NONE',  #124 ) ;
#159 = EDGE_LOOP ( 'NONE', ( #35 ) ) ;
#160 = FACE_BOUND ( 'NONE', #5, .T. ) ;
#161 = COORDINATED_UNIVERSAL_TIME_OFFSET ( 1, 0, .AHEAD. ) ;
#162 = FACE_OUTER_BOUND ( 'NONE', #157, .T. ) ;
#163 = CC_DESIGN_APPROVAL ( #130, ( #85 ) ) ;
#164 = AXIS2_PLACEMENT_3D ( 'NONE', #59, #84, #48 ) ;
#165 = EDGE_CURVE ( 'NONE', #11, #11, #74, .T. ) ;
#166 = CIRCLE ( 'NONE', #46, 4.000000000000000000 ) ;
#167 = PRODUCT ( '3413', '3413', '', ( #9 ) ) ;
#168 = PERSON_AND_ORGANIZATION ( #142, #138 ) ;
#169 = AXIS2_PLACEMENT_3D ( 'NONE', #102, #8, #23 ) ;
ENDSEC;
END-ISO-10303-21;
