ISO-10303-21;
HEADER;
FILE_DESCRIPTION (( 'STEP AP203' ),
    '1' );
FILE_NAME ('3412.step',
    '2021-12-06T12:58:50',
    ( '' ),
    ( '' ),
    'SwSTEP 2.0',
    'SolidWorks 2019',
    '' );
FILE_SCHEMA (( 'CONFIG_CONTROL_DESIGN' ));
ENDSEC;

DATA;
#1 =( NAMED_UNIT ( * ) PLANE_ANGLE_UNIT ( ) SI_UNIT ( $, .RADIAN. ) );
#2 = CC_DESIGN_PERSON_AND_ORGANIZATION_ASSIGNMENT ( #52, #40, ( #43 ) ) ;
#3 = MECHANICAL_CONTEXT ( 'NONE', #69, 'mechanical' ) ;
#4 = SHAPE_DEFINITION_REPRESENTATION ( #118, #114 ) ;
#5 = DIRECTION ( 'NONE',  ( -3.491481338843133355E-15, 1.224646799147353207E-16, -1.000000000000000000 ) ) ;
#6 = CARTESIAN_POINT ( 'NONE',  ( 0.0000000000000000000, 0.0000000000000000000, 0.0000000000000000000 ) ) ;
#7 = APPROVAL_STATUS ( 'not_yet_approved' ) ;
#8 = APPROVAL_PERSON_ORGANIZATION ( #12, #133, #123 ) ;
#9 = ADVANCED_FACE ( 'NONE', ( #144, #117 ), #51, .T. ) ;
#10 = EDGE_LOOP ( 'NONE', ( #60 ) ) ;
#11 = PERSON_AND_ORGANIZATION ( #48, #29 ) ;
#12 = PERSON_AND_ORGANIZATION ( #48, #29 ) ;
#13 = DIRECTION ( 'NONE',  ( 4.275831445896958607E-31, 1.000000000000000000, 1.224646799147353207E-16 ) ) ;
#14 = DIRECTION ( 'NONE',  ( -3.491481338843133355E-15, 1.224646799147353207E-16, -1.000000000000000000 ) ) ;
#15 = DIRECTION ( 'NONE',  ( 1.000000000000000000, 0.0000000000000000000, 0.0000000000000000000 ) ) ;
#16 = DATE_AND_TIME ( #134, #34 ) ;
#17 = FACE_OUTER_BOUND ( 'NONE', #10, .T. ) ;
#18 = CC_DESIGN_PERSON_AND_ORGANIZATION_ASSIGNMENT ( #11, #108, ( #102 ) ) ;
#19 = LOCAL_TIME ( 13, 58, 50.00000000000000000, #45 ) ;
#20 = APPROVAL_ROLE ( '' ) ;
#21 = AXIS2_PLACEMENT_3D ( 'NONE', #160, #131, #127 ) ;
#22 = EDGE_CURVE ( 'NONE', #124, #124, #75, .T. ) ;
#23 = EDGE_LOOP ( 'NONE', ( #88 ) ) ;
#24 = ORIENTED_EDGE ( 'NONE', *, *, #97, .T. ) ;
#25 = ORIENTED_EDGE ( 'NONE', *, *, #63, .T. ) ;
#26 = PERSON_AND_ORGANIZATION ( #48, #29 ) ;
#27 = CARTESIAN_POINT ( 'NONE',  ( 3.421138828918010427E-46, 4.000000000000000000, 0.0000000000000000000 ) ) ;
#28 = SECURITY_CLASSIFICATION_LEVEL ( 'unclassified' ) ;
#29 = ORGANIZATION ( 'UNSPECIFIED', 'UNSPECIFIED', '' ) ;
#30 = CARTESIAN_POINT ( 'NONE',  ( 0.0000000000000000000, 0.0000000000000000000, 0.0000000000000000000 ) ) ;
#31 = DIRECTION ( 'NONE',  ( 4.275831445896958607E-31, 1.000000000000000000, 1.224646799147353207E-16 ) ) ;
#32 = LOCAL_TIME ( 13, 58, 50.00000000000000000, #54 ) ;
#33 = DESIGN_CONTEXT ( 'detailed design', #76, 'design' ) ;
#34 = LOCAL_TIME ( 13, 58, 50.00000000000000000, #151 ) ;
#35 = PRODUCT ( '3412', '3412', '', ( #3 ) ) ;
#36 = APPROVAL_PERSON_ORGANIZATION ( #122, #156, #93 ) ;
#37 = APPROVAL ( #7, 'UNSPECIFIED' ) ;
#38 = ADVANCED_FACE ( 'NONE', ( #17, #165 ), #139, .T. ) ;
#39 = AXIS2_PLACEMENT_3D ( 'NONE', #109, #56, #13 ) ;
#40 = PERSON_AND_ORGANIZATION_ROLE ( 'creator' ) ;
#41 = DATE_AND_TIME ( #169, #19 ) ;
#42 = PLANE ( 'NONE',  #130 ) ;
#43 = PRODUCT_DEFINITION ( 'UNKNOWN', '', #102, #33 ) ;
#44 = CARTESIAN_POINT ( 'NONE',  ( 4.888073874380386697E-15, 4.000000000000000000, 1.399999999999999911 ) ) ;
#45 = COORDINATED_UNIVERSAL_TIME_OFFSET ( 1, 0, .AHEAD. ) ;
#46 = CC_DESIGN_APPROVAL ( #133, ( #102 ) ) ;
#47 = DIRECTION ( 'NONE',  ( -3.491481338843133355E-15, 1.224646799147353207E-16, -1.000000000000000000 ) ) ;
#48 = PERSON ( 'UNSPECIFIED', 'UNSPECIFIED', 'UNSPECIFIED', ('UNSPECIFIED'), ('UNSPECIFIED'), ('UNSPECIFIED') ) ;
#49 = CIRCLE ( 'NONE', #39, 4.000000000000000000 ) ;
#50 = ORIENTED_EDGE ( 'NONE', *, *, #100, .T. ) ;
#51 = PLANE ( 'NONE',  #21 ) ;
#52 = PERSON_AND_ORGANIZATION ( #48, #29 ) ;
#53 = APPROVAL_STATUS ( 'not_yet_approved' ) ;
#54 = COORDINATED_UNIVERSAL_TIME_OFFSET ( 1, 0, .AHEAD. ) ;
#55 = VERTEX_POINT ( 'NONE', #44 ) ;
#56 = DIRECTION ( 'NONE',  ( -3.491481338843133355E-15, 1.224646799147353207E-16, -1.000000000000000000 ) ) ;
#57 = PERSON_AND_ORGANIZATION_ROLE ( 'design_owner' ) ;
#58 = CC_DESIGN_APPROVAL ( #156, ( #62 ) ) ;
#59 = CC_DESIGN_PERSON_AND_ORGANIZATION_ASSIGNMENT ( #129, #57, ( #35 ) ) ;
#60 = ORIENTED_EDGE ( 'NONE', *, *, #22, .T. ) ;
#61 = EDGE_LOOP ( 'NONE', ( #167 ) ) ;
#62 = SECURITY_CLASSIFICATION ( '', '', #28 ) ;
#63 = EDGE_CURVE ( 'NONE', #55, #55, #115, .T. ) ;
#64 = EDGE_LOOP ( 'NONE', ( #25 ) ) ;
#65 = CC_DESIGN_PERSON_AND_ORGANIZATION_ASSIGNMENT ( #146, #153, ( #102 ) ) ;
#66 = DIRECTION ( 'NONE',  ( 4.275831445896958607E-31, 1.000000000000000000, 1.224646799147353207E-16 ) ) ;
#67 = CALENDAR_DATE ( 2021, 6, 12 ) ;
#68 = DIRECTION ( 'NONE',  ( -3.491481338843133355E-15, 1.224646799147353207E-16, -1.000000000000000000 ) ) ;
#69 = APPLICATION_CONTEXT ( 'configuration controlled 3d designs of mechanical parts and assemblies' ) ;
#70 = CARTESIAN_POINT ( 'NONE',  ( -1.817228364506207364E-30, 4.000000000000000000, -5.204748896376250699E-16 ) ) ;
#71 = AXIS2_PLACEMENT_3D ( 'NONE', #138, #94, #15 ) ;
#72 = APPLICATION_PROTOCOL_DEFINITION ( 'international standard', 'config_control_design', 1994, #69 ) ;
#73 = PERSON_AND_ORGANIZATION ( #48, #29 ) ;
#74 = EDGE_LOOP ( 'NONE', ( #101 ) ) ;
#75 = CIRCLE ( 'NONE', #80, 12.50000000000000000 ) ;
#76 = APPLICATION_CONTEXT ( 'configuration controlled 3d designs of mechanical parts and assemblies' ) ;
#77 = COORDINATED_UNIVERSAL_TIME_OFFSET ( 1, 0, .AHEAD. ) ;
#78 = DATE_AND_TIME ( #87, #143 ) ;
#79 = AXIS2_PLACEMENT_3D ( 'NONE', #84, #163, #112 ) ;
#80 = AXIS2_PLACEMENT_3D ( 'NONE', #135, #14, #82 ) ;
#81 = PERSON_AND_ORGANIZATION_ROLE ( 'classification_officer' ) ;
#82 = DIRECTION ( 'NONE',  ( 4.314083075427408311E-31, 1.000000000000000000, 1.214306433183764966E-16 ) ) ;
#83 = FACE_OUTER_BOUND ( 'NONE', #74, .T. ) ;
#84 = CARTESIAN_POINT ( 'NONE',  ( -5.344789307371198171E-30, 1.874699728327322119E-31, -1.530808498934191521E-15 ) ) ;
#85 = CIRCLE ( 'NONE', #79, 12.50000000000000000 ) ;
#86 = PRODUCT_RELATED_PRODUCT_CATEGORY ( 'detail', '', ( #35 ) ) ;
#87 = CALENDAR_DATE ( 2021, 6, 12 ) ;
#88 = ORIENTED_EDGE ( 'NONE', *, *, #97, .F. ) ;
#89 = APPROVAL_DATE_TIME ( #41, #37 ) ;
#90 =( LENGTH_UNIT ( ) NAMED_UNIT ( * ) SI_UNIT ( .MILLI., .METRE. ) );
#91 = DATE_TIME_ROLE ( 'creation_date' ) ;
#92 = VERTEX_POINT ( 'NONE', #111 ) ;
#93 = APPROVAL_ROLE ( '' ) ;
#94 = DIRECTION ( 'NONE',  ( 0.0000000000000000000, 0.0000000000000000000, 1.000000000000000000 ) ) ;
#95 =( NAMED_UNIT ( * ) SI_UNIT ( $, .STERADIAN. ) SOLID_ANGLE_UNIT ( ) );
#96 = DIRECTION ( 'NONE',  ( 3.851859888774471706E-31, 1.000000000000000000, 1.084202172485504434E-16 ) ) ;
#97 = EDGE_CURVE ( 'NONE', #140, #140, #49, .T. ) ;
#98 = CC_DESIGN_DATE_AND_TIME_ASSIGNMENT ( #78, #137, ( #62 ) ) ;
#99 = MANIFOLD_SOLID_BREP ( 'Corps-Déplacer/Copier1', #157 ) ;
#100 = EDGE_CURVE ( 'NONE', #92, #92, #85, .T. ) ;
#101 = ORIENTED_EDGE ( 'NONE', *, *, #63, .F. ) ;
#102 = PRODUCT_DEFINITION_FORMATION_WITH_SPECIFIED_SOURCE ( 'ANY', '', #35, .NOT_KNOWN. ) ;
#103 = CC_DESIGN_PERSON_AND_ORGANIZATION_ASSIGNMENT ( #26, #81, ( #62 ) ) ;
#104 = EDGE_LOOP ( 'NONE', ( #106 ) ) ;
#105 = UNCERTAINTY_MEASURE_WITH_UNIT (LENGTH_MEASURE( 1.000000000000000082E-05 ), #90, 'distance_accuracy_value', 'NONE');
#106 = ORIENTED_EDGE ( 'NONE', *, *, #100, .F. ) ;
#107 = CC_DESIGN_SECURITY_CLASSIFICATION ( #62, ( #102 ) ) ;
#108 = PERSON_AND_ORGANIZATION_ROLE ( 'creator' ) ;
#109 = CARTESIAN_POINT ( 'NONE',  ( -1.710332578358783092E-30, 5.999039130647430431E-32, -4.898587196589412829E-16 ) ) ;
#110 = FACE_OUTER_BOUND ( 'NONE', #166, .T. ) ;
#111 = CARTESIAN_POINT ( 'NONE',  ( 0.0000000000000000000, 12.50000000000000000, 0.0000000000000000000 ) ) ;
#112 = DIRECTION ( 'NONE',  ( 4.275831445896958607E-31, 1.000000000000000000, 1.224646799147353207E-16 ) ) ;
#113 = LOCAL_TIME ( 13, 58, 50.00000000000000000, #168 ) ;
#114 = ADVANCED_BREP_SHAPE_REPRESENTATION ( '3412', ( #99, #71 ), #119 ) ;
#115 = CIRCLE ( 'NONE', #159, 4.000000000000000000 ) ;
#116 = EDGE_LOOP ( 'NONE', ( #50 ) ) ;
#117 = FACE_OUTER_BOUND ( 'NONE', #61, .T. ) ;
#118 = PRODUCT_DEFINITION_SHAPE ( 'NONE', 'NONE',  #43 ) ;
#119 =( GEOMETRIC_REPRESENTATION_CONTEXT ( 3 ) GLOBAL_UNCERTAINTY_ASSIGNED_CONTEXT ( ( #105 ) ) GLOBAL_UNIT_ASSIGNED_CONTEXT ( ( #90, #1, #95 ) ) REPRESENTATION_CONTEXT ( 'NONE', 'WORKASPACE' ) );
#120 = CARTESIAN_POINT ( 'NONE',  ( 4.888073874380386697E-15, 12.50000000000000000, 1.399999999999999911 ) ) ;
#121 = APPROVAL_PERSON_ORGANIZATION ( #73, #37, #20 ) ;
#122 = PERSON_AND_ORGANIZATION ( #48, #29 ) ;
#123 = APPROVAL_ROLE ( '' ) ;
#124 = VERTEX_POINT ( 'NONE', #120 ) ;
#125 = APPROVAL_DATE_TIME ( #16, #156 ) ;
#126 = CARTESIAN_POINT ( 'NONE',  ( 4.888073874380385120E-15, -1.714505518806293898E-16, 1.399999999999999467 ) ) ;
#127 = DIRECTION ( 'NONE',  ( -4.275831445896958607E-31, -1.000000000000000000, -1.224646799147353207E-16 ) ) ;
#128 = ADVANCED_FACE ( 'NONE', ( #152, #147 ), #42, .T. ) ;
#129 = PERSON_AND_ORGANIZATION ( #48, #29 ) ;
#130 = AXIS2_PLACEMENT_3D ( 'NONE', #70, #5, #164 ) ;
#131 = DIRECTION ( 'NONE',  ( 3.491481338843133355E-15, -1.224646799147353207E-16, 1.000000000000000000 ) ) ;
#132 = DATE_AND_TIME ( #67, #113 ) ;
#133 = APPROVAL ( #53, 'UNSPECIFIED' ) ;
#134 = CALENDAR_DATE ( 2021, 6, 12 ) ;
#135 = CARTESIAN_POINT ( 'NONE',  ( 4.888073874380381175E-15, -1.714505518806292419E-16, 1.399999999999998579 ) ) ;
#136 = AXIS2_PLACEMENT_3D ( 'NONE', #6, #47, #31 ) ;
#137 = DATE_TIME_ROLE ( 'classification_date' ) ;
#138 = CARTESIAN_POINT ( 'NONE',  ( 0.0000000000000000000, 0.0000000000000000000, 0.0000000000000000000 ) ) ;
#139 = CYLINDRICAL_SURFACE ( 'NONE', #136, 12.50000000000000000 ) ;
#140 = VERTEX_POINT ( 'NONE', #27 ) ;
#141 = AXIS2_PLACEMENT_3D ( 'NONE', #30, #68, #66 ) ;
#142 = APPLICATION_PROTOCOL_DEFINITION ( 'international standard', 'config_control_design', 1994, #76 ) ;
#143 = LOCAL_TIME ( 13, 58, 50.00000000000000000, #77 ) ;
#144 = FACE_BOUND ( 'NONE', #64, .T. ) ;
#145 = APPROVAL_STATUS ( 'not_yet_approved' ) ;
#146 = PERSON_AND_ORGANIZATION ( #48, #29 ) ;
#147 = FACE_BOUND ( 'NONE', #23, .T. ) ;
#148 = DATE_AND_TIME ( #161, #32 ) ;
#149 = CC_DESIGN_DATE_AND_TIME_ASSIGNMENT ( #132, #91, ( #43 ) ) ;
#150 = CC_DESIGN_APPROVAL ( #37, ( #43 ) ) ;
#151 = COORDINATED_UNIVERSAL_TIME_OFFSET ( 1, 0, .AHEAD. ) ;
#152 = FACE_OUTER_BOUND ( 'NONE', #116, .T. ) ;
#153 = PERSON_AND_ORGANIZATION_ROLE ( 'design_supplier' ) ;
#154 = DIRECTION ( 'NONE',  ( -3.491481338843133355E-15, 1.224646799147353207E-16, -1.000000000000000000 ) ) ;
#155 = CYLINDRICAL_SURFACE ( 'NONE', #141, 4.000000000000000000 ) ;
#156 = APPROVAL ( #145, 'UNSPECIFIED' ) ;
#157 = CLOSED_SHELL ( 'NONE', ( #128, #38, #9, #158 ) ) ;
#158 = ADVANCED_FACE ( 'NONE', ( #110, #83 ), #155, .F. ) ;
#159 = AXIS2_PLACEMENT_3D ( 'NONE', #126, #154, #96 ) ;
#160 = CARTESIAN_POINT ( 'NONE',  ( 4.888073874380385120E-15, 4.000000000000000000, 1.399999999999999467 ) ) ;
#161 = CALENDAR_DATE ( 2021, 6, 12 ) ;
#162 = APPROVAL_DATE_TIME ( #148, #133 ) ;
#163 = DIRECTION ( 'NONE',  ( -3.491481338843133355E-15, 1.224646799147353207E-16, -1.000000000000000000 ) ) ;
#164 = DIRECTION ( 'NONE',  ( 4.275831445896958607E-31, 1.000000000000000000, 1.224646799147353207E-16 ) ) ;
#165 = FACE_OUTER_BOUND ( 'NONE', #104, .T. ) ;
#166 = EDGE_LOOP ( 'NONE', ( #24 ) ) ;
#167 = ORIENTED_EDGE ( 'NONE', *, *, #22, .F. ) ;
#168 = COORDINATED_UNIVERSAL_TIME_OFFSET ( 1, 0, .AHEAD. ) ;
#169 = CALENDAR_DATE ( 2021, 6, 12 ) ;
ENDSEC;
END-ISO-10303-21;
