ISO-10303-21;
HEADER;
FILE_DESCRIPTION (( 'STEP AP203' ),
    '1' );
FILE_NAME ('3410.step',
    '2021-12-06T12:58:49',
    ( '' ),
    ( '' ),
    'SwSTEP 2.0',
    'SolidWorks 2019',
    '' );
FILE_SCHEMA (( 'CONFIG_CONTROL_DESIGN' ));
ENDSEC;

DATA;
#1 = SHAPE_DEFINITION_REPRESENTATION ( #90, #4 ) ;
#2 = PERSON_AND_ORGANIZATION_ROLE ( 'creator' ) ;
#3 = LOCAL_TIME ( 13, 58, 49.00000000000000000, #23 ) ;
#4 = ADVANCED_BREP_SHAPE_REPRESENTATION ( '3410', ( #96, #12 ), #117 ) ;
#5 = DATE_AND_TIME ( #14, #22 ) ;
#6 = UNCERTAINTY_MEASURE_WITH_UNIT (LENGTH_MEASURE( 1.000000000000000082E-05 ), #8, 'distance_accuracy_value', 'NONE');
#7 = APPROVAL_PERSON_ORGANIZATION ( #161, #159, #162 ) ;
#8 =( LENGTH_UNIT ( ) NAMED_UNIT ( * ) SI_UNIT ( .MILLI., .METRE. ) );
#9 = VERTEX_POINT ( 'NONE', #87 ) ;
#10 = CC_DESIGN_DATE_AND_TIME_ASSIGNMENT ( #52, #104, ( #58 ) ) ;
#11 = VERTEX_POINT ( 'NONE', #119 ) ;
#12 = AXIS2_PLACEMENT_3D ( 'NONE', #59, #115, #154 ) ;
#13 = APPROVAL_DATE_TIME ( #107, #159 ) ;
#14 = CALENDAR_DATE ( 2021, 6, 12 ) ;
#15 = ORIENTED_EDGE ( 'NONE', *, *, #165, .T. ) ;
#16 = DIRECTION ( 'NONE',  ( 4.604741557119801913E-31, 1.000000000000000000, 1.318850399081765068E-16 ) ) ;
#17 = EDGE_CURVE ( 'NONE', #9, #9, #79, .T. ) ;
#18 = CC_DESIGN_APPROVAL ( #49, ( #114 ) ) ;
#19 = FACE_OUTER_BOUND ( 'NONE', #153, .T. ) ;
#20 = DATE_AND_TIME ( #45, #3 ) ;
#21 = COORDINATED_UNIVERSAL_TIME_OFFSET ( 1, 0, .AHEAD. ) ;
#22 = LOCAL_TIME ( 13, 58, 49.00000000000000000, #21 ) ;
#23 = COORDINATED_UNIVERSAL_TIME_OFFSET ( 1, 0, .AHEAD. ) ;
#24 = AXIS2_PLACEMENT_3D ( 'NONE', #163, #40, #91 ) ;
#25 = PERSON_AND_ORGANIZATION_ROLE ( 'classification_officer' ) ;
#26 = APPROVAL_STATUS ( 'not_yet_approved' ) ;
#27 = CIRCLE ( 'NONE', #24, 12.50000000000000000 ) ;
#28 = PLANE ( 'NONE',  #89 ) ;
#29 = DIRECTION ( 'NONE',  ( 4.314083075427408311E-31, 1.000000000000000000, 1.387778780781445676E-16 ) ) ;
#30 = ORGANIZATION ( 'UNSPECIFIED', 'UNSPECIFIED', '' ) ;
#31 = PRODUCT_RELATED_PRODUCT_CATEGORY ( 'detail', '', ( #122 ) ) ;
#32 = APPLICATION_PROTOCOL_DEFINITION ( 'international standard', 'config_control_design', 1994, #80 ) ;
#33 = DIRECTION ( 'NONE',  ( 4.604741557119801913E-31, 1.000000000000000000, 1.318850399081765068E-16 ) ) ;
#34 = CYLINDRICAL_SURFACE ( 'NONE', #125, 4.000000000000000000 ) ;
#35 = LOCAL_TIME ( 13, 58, 49.00000000000000000, #160 ) ;
#36 = DIRECTION ( 'NONE',  ( -3.491481338843133355E-15, 1.318850399081765068E-16, -1.000000000000000000 ) ) ;
#37 = DATE_TIME_ROLE ( 'creation_date' ) ;
#38 = APPLICATION_CONTEXT ( 'configuration controlled 3d designs of mechanical parts and assemblies' ) ;
#39 = APPROVAL_ROLE ( '' ) ;
#40 = DIRECTION ( 'NONE',  ( -3.491481338843133355E-15, 1.318850399081765068E-16, -1.000000000000000000 ) ) ;
#41 = CARTESIAN_POINT ( 'NONE',  ( -1.957015161775916054E-30, 4.000000000000000000, -5.605114196097501663E-16 ) ) ;
#42 = EDGE_LOOP ( 'NONE', ( #113 ) ) ;
#43 = ORIENTED_EDGE ( 'NONE', *, *, #94, .T. ) ;
#44 = APPROVAL_ROLE ( '' ) ;
#45 = CALENDAR_DATE ( 2021, 6, 12 ) ;
#46 = CLOSED_SHELL ( 'NONE', ( #81, #120, #152, #127 ) ) ;
#47 = APPROVAL_DATE_TIME ( #20, #49 ) ;
#48 = PERSON_AND_ORGANIZATION ( #133, #30 ) ;
#49 = APPROVAL ( #129, 'UNSPECIFIED' ) ;
#50 = LOCAL_TIME ( 13, 58, 49.00000000000000000, #135 ) ;
#51 = COORDINATED_UNIVERSAL_TIME_OFFSET ( 1, 0, .AHEAD. ) ;
#52 = DATE_AND_TIME ( #75, #50 ) ;
#53 = AXIS2_PLACEMENT_3D ( 'NONE', #85, #157, #100 ) ;
#54 = EDGE_CURVE ( 'NONE', #169, #169, #27, .T. ) ;
#55 = CIRCLE ( 'NONE', #126, 4.000000000000000000 ) ;
#56 = EDGE_LOOP ( 'NONE', ( #67 ) ) ;
#57 = EDGE_LOOP ( 'NONE', ( #77 ) ) ;
#58 = SECURITY_CLASSIFICATION ( '', '', #121 ) ;
#59 = CARTESIAN_POINT ( 'NONE',  ( 0.0000000000000000000, 0.0000000000000000000, 0.0000000000000000000 ) ) ;
#60 = FACE_OUTER_BOUND ( 'NONE', #57, .T. ) ;
#61 =( NAMED_UNIT ( * ) SI_UNIT ( $, .STERADIAN. ) SOLID_ANGLE_UNIT ( ) );
#62 = CC_DESIGN_PERSON_AND_ORGANIZATION_ASSIGNMENT ( #48, #155, ( #122 ) ) ;
#63 = CC_DESIGN_APPROVAL ( #159, ( #58 ) ) ;
#64 = APPROVAL_DATE_TIME ( #148, #103 ) ;
#65 = PERSON_AND_ORGANIZATION ( #133, #30 ) ;
#66 = CALENDAR_DATE ( 2021, 6, 12 ) ;
#67 = ORIENTED_EDGE ( 'NONE', *, *, #17, .T. ) ;
#68 = FACE_OUTER_BOUND ( 'NONE', #56, .T. ) ;
#69 = EDGE_LOOP ( 'NONE', ( #15 ) ) ;
#70 = CC_DESIGN_PERSON_AND_ORGANIZATION_ASSIGNMENT ( #123, #2, ( #86 ) ) ;
#71 = APPROVAL_PERSON_ORGANIZATION ( #101, #49, #44 ) ;
#72 =( NAMED_UNIT ( * ) PLANE_ANGLE_UNIT ( ) SI_UNIT ( $, .RADIAN. ) );
#73 = CC_DESIGN_PERSON_AND_ORGANIZATION_ASSIGNMENT ( #105, #25, ( #58 ) ) ;
#74 = APPROVAL_STATUS ( 'not_yet_approved' ) ;
#75 = CALENDAR_DATE ( 2021, 6, 12 ) ;
#76 = CIRCLE ( 'NONE', #106, 4.000000000000000000 ) ;
#77 = ORIENTED_EDGE ( 'NONE', *, *, #165, .F. ) ;
#78 = CARTESIAN_POINT ( 'NONE',  ( -1.841896622847920415E-30, 6.957465500632524001E-32, -5.275401596327060273E-16 ) ) ;
#79 = CIRCLE ( 'NONE', #99, 12.50000000000000000 ) ;
#80 = APPLICATION_CONTEXT ( 'configuration controlled 3d designs of mechanical parts and assemblies' ) ;
#81 = ADVANCED_FACE ( 'NONE', ( #164, #149 ), #28, .T. ) ;
#82 = MECHANICAL_CONTEXT ( 'NONE', #38, 'mechanical' ) ;
#83 = CARTESIAN_POINT ( 'NONE',  ( 4.538925740496071784E-15, -1.714505518806293898E-16, 1.299999999999999600 ) ) ;
#84 = PERSON_AND_ORGANIZATION_ROLE ( 'creator' ) ;
#85 = CARTESIAN_POINT ( 'NONE',  ( 0.0000000000000000000, 0.0000000000000000000, 0.0000000000000000000 ) ) ;
#86 = PRODUCT_DEFINITION_FORMATION_WITH_SPECIFIED_SOURCE ( 'ANY', '', #122, .NOT_KNOWN. ) ;
#87 = CARTESIAN_POINT ( 'NONE',  ( 4.538925740496072573E-15, 12.50000000000000000, 1.300000000000000044 ) ) ;
#88 = PERSON_AND_ORGANIZATION ( #133, #30 ) ;
#89 = AXIS2_PLACEMENT_3D ( 'NONE', #41, #92, #150 ) ;
#90 = PRODUCT_DEFINITION_SHAPE ( 'NONE', 'NONE',  #114 ) ;
#91 = DIRECTION ( 'NONE',  ( 4.604741557119801913E-31, 1.000000000000000000, 1.318850399081765068E-16 ) ) ;
#92 = DIRECTION ( 'NONE',  ( -3.491481338843133355E-15, 1.318850399081765068E-16, -1.000000000000000000 ) ) ;
#93 = DESIGN_CONTEXT ( 'detailed design', #80, 'design' ) ;
#94 = EDGE_CURVE ( 'NONE', #11, #11, #55, .T. ) ;
#95 = FACE_OUTER_BOUND ( 'NONE', #128, .T. ) ;
#96 = MANIFOLD_SOLID_BREP ( 'Corps-Déplacer/Copier1', #46 ) ;
#97 = AXIS2_PLACEMENT_3D ( 'NONE', #168, #144, #143 ) ;
#98 = EDGE_LOOP ( 'NONE', ( #151 ) ) ;
#99 = AXIS2_PLACEMENT_3D ( 'NONE', #124, #108, #29 ) ;
#100 = DIRECTION ( 'NONE',  ( 4.604741557119801913E-31, 1.000000000000000000, 1.318850399081765068E-16 ) ) ;
#101 = PERSON_AND_ORGANIZATION ( #133, #30 ) ;
#102 = CARTESIAN_POINT ( 'NONE',  ( 0.0000000000000000000, 0.0000000000000000000, 0.0000000000000000000 ) ) ;
#103 = APPROVAL ( #74, 'UNSPECIFIED' ) ;
#104 = DATE_TIME_ROLE ( 'classification_date' ) ;
#105 = PERSON_AND_ORGANIZATION ( #133, #30 ) ;
#106 = AXIS2_PLACEMENT_3D ( 'NONE', #83, #130, #167 ) ;
#107 = DATE_AND_TIME ( #147, #140 ) ;
#108 = DIRECTION ( 'NONE',  ( -3.491481338843133355E-15, 1.318850399081765068E-16, -1.000000000000000000 ) ) ;
#109 = CC_DESIGN_SECURITY_CLASSIFICATION ( #58, ( #86 ) ) ;
#110 = EDGE_LOOP ( 'NONE', ( #139 ) ) ;
#111 = ORIENTED_EDGE ( 'NONE', *, *, #54, .F. ) ;
#112 = APPROVAL_PERSON_ORGANIZATION ( #65, #103, #39 ) ;
#113 = ORIENTED_EDGE ( 'NONE', *, *, #54, .T. ) ;
#114 = PRODUCT_DEFINITION ( 'UNKNOWN', '', #86, #93 ) ;
#115 = DIRECTION ( 'NONE',  ( 0.0000000000000000000, 0.0000000000000000000, 1.000000000000000000 ) ) ;
#116 = CC_DESIGN_PERSON_AND_ORGANIZATION_ASSIGNMENT ( #88, #146, ( #86 ) ) ;
#117 =( GEOMETRIC_REPRESENTATION_CONTEXT ( 3 ) GLOBAL_UNCERTAINTY_ASSIGNED_CONTEXT ( ( #6 ) ) GLOBAL_UNIT_ASSIGNED_CONTEXT ( ( #8, #72, #61 ) ) REPRESENTATION_CONTEXT ( 'NONE', 'WORKASPACE' ) );
#118 = APPLICATION_PROTOCOL_DEFINITION ( 'international standard', 'config_control_design', 1994, #38 ) ;
#119 = CARTESIAN_POINT ( 'NONE',  ( 3.421138828918010427E-46, 4.000000000000000000, 0.0000000000000000000 ) ) ;
#120 = ADVANCED_FACE ( 'NONE', ( #68, #95 ), #134, .T. ) ;
#121 = SECURITY_CLASSIFICATION_LEVEL ( 'unclassified' ) ;
#122 = PRODUCT ( '3410', '3410', '', ( #82 ) ) ;
#123 = PERSON_AND_ORGANIZATION ( #133, #30 ) ;
#124 = CARTESIAN_POINT ( 'NONE',  ( 4.538925740496067051E-15, -1.714505518806292173E-16, 1.299999999999998268 ) ) ;
#125 = AXIS2_PLACEMENT_3D ( 'NONE', #102, #36, #33 ) ;
#126 = AXIS2_PLACEMENT_3D ( 'NONE', #78, #138, #16 ) ;
#127 = ADVANCED_FACE ( 'NONE', ( #19, #60 ), #34, .F. ) ;
#128 = EDGE_LOOP ( 'NONE', ( #111 ) ) ;
#129 = APPROVAL_STATUS ( 'not_yet_approved' ) ;
#130 = DIRECTION ( 'NONE',  ( -3.491481338843133355E-15, 1.318850399081765068E-16, -1.000000000000000000 ) ) ;
#131 = CARTESIAN_POINT ( 'NONE',  ( 0.0000000000000000000, 12.50000000000000000, 0.0000000000000000000 ) ) ;
#132 = CC_DESIGN_PERSON_AND_ORGANIZATION_ASSIGNMENT ( #156, #84, ( #114 ) ) ;
#133 = PERSON ( 'UNSPECIFIED', 'UNSPECIFIED', 'UNSPECIFIED', ('UNSPECIFIED'), ('UNSPECIFIED'), ('UNSPECIFIED') ) ;
#134 = CYLINDRICAL_SURFACE ( 'NONE', #53, 12.50000000000000000 ) ;
#135 = COORDINATED_UNIVERSAL_TIME_OFFSET ( 1, 0, .AHEAD. ) ;
#136 = CC_DESIGN_APPROVAL ( #103, ( #86 ) ) ;
#137 = CC_DESIGN_DATE_AND_TIME_ASSIGNMENT ( #5, #37, ( #114 ) ) ;
#138 = DIRECTION ( 'NONE',  ( -3.491481338843133355E-15, 1.318850399081765068E-16, -1.000000000000000000 ) ) ;
#139 = ORIENTED_EDGE ( 'NONE', *, *, #17, .F. ) ;
#140 = LOCAL_TIME ( 13, 58, 49.00000000000000000, #51 ) ;
#141 = VERTEX_POINT ( 'NONE', #142 ) ;
#142 = CARTESIAN_POINT ( 'NONE',  ( 4.538925740496073362E-15, 4.000000000000000000, 1.300000000000000044 ) ) ;
#143 = DIRECTION ( 'NONE',  ( -4.604741557119801913E-31, -1.000000000000000000, -1.318850399081765068E-16 ) ) ;
#144 = DIRECTION ( 'NONE',  ( 3.491481338843133355E-15, -1.318850399081765068E-16, 1.000000000000000000 ) ) ;
#145 = PLANE ( 'NONE',  #97 ) ;
#146 = PERSON_AND_ORGANIZATION_ROLE ( 'design_supplier' ) ;
#147 = CALENDAR_DATE ( 2021, 6, 12 ) ;
#148 = DATE_AND_TIME ( #66, #35 ) ;
#149 = FACE_BOUND ( 'NONE', #98, .T. ) ;
#150 = DIRECTION ( 'NONE',  ( 4.604741557119801913E-31, 1.000000000000000000, 1.318850399081765068E-16 ) ) ;
#151 = ORIENTED_EDGE ( 'NONE', *, *, #94, .F. ) ;
#152 = ADVANCED_FACE ( 'NONE', ( #158, #166 ), #145, .T. ) ;
#153 = EDGE_LOOP ( 'NONE', ( #43 ) ) ;
#154 = DIRECTION ( 'NONE',  ( 1.000000000000000000, 0.0000000000000000000, 0.0000000000000000000 ) ) ;
#155 = PERSON_AND_ORGANIZATION_ROLE ( 'design_owner' ) ;
#156 = PERSON_AND_ORGANIZATION ( #133, #30 ) ;
#157 = DIRECTION ( 'NONE',  ( -3.491481338843133355E-15, 1.318850399081765068E-16, -1.000000000000000000 ) ) ;
#158 = FACE_BOUND ( 'NONE', #69, .T. ) ;
#159 = APPROVAL ( #26, 'UNSPECIFIED' ) ;
#160 = COORDINATED_UNIVERSAL_TIME_OFFSET ( 1, 0, .AHEAD. ) ;
#161 = PERSON_AND_ORGANIZATION ( #133, #30 ) ;
#162 = APPROVAL_ROLE ( '' ) ;
#163 = CARTESIAN_POINT ( 'NONE',  ( -5.755926946399752523E-30, 2.174207968947663764E-31, -1.648562998852206360E-15 ) ) ;
#164 = FACE_OUTER_BOUND ( 'NONE', #42, .T. ) ;
#165 = EDGE_CURVE ( 'NONE', #141, #141, #76, .T. ) ;
#166 = FACE_OUTER_BOUND ( 'NONE', #110, .T. ) ;
#167 = DIRECTION ( 'NONE',  ( 3.851859888774471706E-31, 1.000000000000000000, 1.084202172485504434E-16 ) ) ;
#168 = CARTESIAN_POINT ( 'NONE',  ( 4.538925740496070995E-15, 4.000000000000000000, 1.299999999999999378 ) ) ;
#169 = VERTEX_POINT ( 'NONE', #131 ) ;
ENDSEC;
END-ISO-10303-21;
