ISO-10303-21;
HEADER;
FILE_DESCRIPTION (( 'STEP AP203' ),
    '1' );
FILE_NAME ('34090.step',
    '2021-09-21T07:46:53',
    ( '' ),
    ( '' ),
    'SwSTEP 2.0',
    'SolidWorks 2019',
    '' );
FILE_SCHEMA (( 'CONFIG_CONTROL_DESIGN' ));
ENDSEC;

DATA;
#1 = EDGE_LOOP ( 'NONE', ( #269, #266, #20, #66 ) ) ;
#2 = APPROVAL_DATE_TIME ( #213, #141 ) ;
#3 = DESIGN_CONTEXT ( 'detailed design', #151, 'design' ) ;
#4 = SECURITY_CLASSIFICATION_LEVEL ( 'unclassified' ) ;
#5 = AXIS2_PLACEMENT_3D ( 'NONE', #75, #162, #251 ) ;
#6 = EDGE_LOOP ( 'NONE', ( #214, #149, #24, #15 ) ) ;
#7 = DIRECTION ( 'NONE',  ( 5.135813185032643538E-31, 1.000000000000000000, 1.445602896647343354E-16 ) ) ;
#8 = DIRECTION ( 'NONE',  ( 0.0000000000000000000, 1.000000000000000000, 0.0000000000000000000 ) ) ;
#9 = ADVANCED_BREP_SHAPE_REPRESENTATION ( '34090', ( #185, #94, #159 ), #78 ) ;
#10 = LOCAL_TIME ( 9, 46, 53.00000000000000000, #27 ) ;
#11 = DIRECTION ( 'NONE',  ( -3.491481338843133355E-15, 1.224646799147353207E-16, -1.000000000000000000 ) ) ;
#12 = DIRECTION ( 'NONE',  ( 2.468850131082278754E-15, -0.7071067811865437980, 0.7071067811865513475 ) ) ;
#13 = AXIS2_PLACEMENT_3D ( 'NONE', #281, #238, #205 ) ;
#14 = EDGE_CURVE ( 'NONE', #284, #237, #152, .T. ) ;
#15 = ORIENTED_EDGE ( 'NONE', *, *, #49, .F. ) ;
#16 = CARTESIAN_POINT ( 'NONE',  ( 0.0000000000000000000, 0.0000000000000000000, 0.0000000000000000000 ) ) ;
#17 = CONICAL_SURFACE ( 'NONE', #229, 1.200000000000000844, 0.7853981633974453924 ) ;
#18 = DIRECTION ( 'NONE',  ( 4.275831445896958607E-31, 1.000000000000000000, 1.224646799147353207E-16 ) ) ;
#19 =( NAMED_UNIT ( * ) PLANE_ANGLE_UNIT ( ) SI_UNIT ( $, .RADIAN. ) );
#20 = ORIENTED_EDGE ( 'NONE', *, *, #38, .F. ) ;
#21 = MECHANICAL_CONTEXT ( 'NONE', #136, 'mechanical' ) ;
#22 = PERSON_AND_ORGANIZATION_ROLE ( 'creator' ) ;
#23 = CALENDAR_DATE ( 2021, 21, 9 ) ;
#24 = ORIENTED_EDGE ( 'NONE', *, *, #228, .T. ) ;
#25 = VECTOR ( 'NONE', #63, 1000.000000000000000 ) ;
#26 = DIRECTION ( 'NONE',  ( -3.491481338843133355E-15, 1.224646799147353207E-16, -1.000000000000000000 ) ) ;
#27 = COORDINATED_UNIVERSAL_TIME_OFFSET ( 1, 0, .AHEAD. ) ;
#28 = CARTESIAN_POINT ( 'NONE',  ( 1.326762908760390423E-13, 1.199999999999996181, 38.00000000000000000 ) ) ;
#29 = FACE_OUTER_BOUND ( 'NONE', #124, .T. ) ;
#30 = ADVANCED_FACE ( 'NONE', ( #97 ), #278, .T. ) ;
#31 = APPROVAL_PERSON_ORGANIZATION ( #102, #176, #260 ) ;
#32 = DIRECTION ( 'NONE',  ( -3.491481338843133355E-15, 1.224646799147353207E-16, -1.000000000000000000 ) ) ;
#33 = DIRECTION ( 'NONE',  ( 0.0000000000000000000, 1.000000000000000000, 0.0000000000000000000 ) ) ;
#34 = LOCAL_TIME ( 9, 46, 53.00000000000000000, #44 ) ;
#35 = EDGE_CURVE ( 'NONE', #41, #200, #126, .T. ) ;
#36 = LINE ( 'NONE', #189, #25 ) ;
#37 = CARTESIAN_POINT ( 'NONE',  ( 6.861673126119747862E-14, -1.499999999999996003, 1.500000000000011990 ) ) ;
#38 = EDGE_CURVE ( 'NONE', #127, #209, #146, .T. ) ;
#39 = VECTOR ( 'NONE', #12, 1000.000000000000000 ) ;
#40 = CARTESIAN_POINT ( 'NONE',  ( 5.237222008264742631E-15, -1.836970198721044725E-16, 1.500000000000012212 ) ) ;
#41 = VERTEX_POINT ( 'NONE', #77 ) ;
#42 = CC_DESIGN_PERSON_AND_ORGANIZATION_ASSIGNMENT ( #157, #180, ( #68 ) ) ;
#43 = AXIS2_PLACEMENT_3D ( 'NONE', #277, #133, #227 ) ;
#44 = COORDINATED_UNIVERSAL_TIME_OFFSET ( 1, 0, .AHEAD. ) ;
#45 = VERTEX_POINT ( 'NONE', #28 ) ;
#46 = CALENDAR_DATE ( 2021, 21, 9 ) ;
#47 = ORIENTED_EDGE ( 'NONE', *, *, #139, .F. ) ;
#48 = DATE_TIME_ROLE ( 'classification_date' ) ;
#49 = EDGE_CURVE ( 'NONE', #209, #127, #120, .T. ) ;
#50 = CARTESIAN_POINT ( 'NONE',  ( 1.316288464743861212E-13, 1.499999999999996225, 37.69999999999999574 ) ) ;
#51 = AXIS2_PLACEMENT_3D ( 'NONE', #74, #118, #225 ) ;
#52 = CARTESIAN_POINT ( 'NONE',  ( 1.316288464743861212E-13, -4.616918432785521081E-15, 37.69999999999999574 ) ) ;
#53 = DIRECTION ( 'NONE',  ( -3.491481338843133355E-15, 1.224646799147353207E-16, -1.000000000000000000 ) ) ;
#54 = CARTESIAN_POINT ( 'NONE',  ( 1.836970198721021306E-16, -1.499999999999998224, -1.836970198721033878E-16 ) ) ;
#55 = AXIS2_PLACEMENT_3D ( 'NONE', #249, #271, #182 ) ;
#56 = DIRECTION ( 'NONE',  ( -3.491481338843133355E-15, 1.224646799147353207E-16, -1.000000000000000000 ) ) ;
#57 = CC_DESIGN_PERSON_AND_ORGANIZATION_ASSIGNMENT ( #259, #59, ( #101 ) ) ;
#58 = AXIS2_PLACEMENT_3D ( 'NONE', #100, #32, #186 ) ;
#59 = PERSON_AND_ORGANIZATION_ROLE ( 'design_owner' ) ;
#60 = COORDINATED_UNIVERSAL_TIME_OFFSET ( 1, 0, .AHEAD. ) ;
#61 = CARTESIAN_POINT ( 'NONE',  ( 1.323178959930974653E-13, -1.200000000000005285, 38.00000000000000000 ) ) ;
#62 = AXIS2_PLACEMENT_3D ( 'NONE', #92, #161, #135 ) ;
#63 = DIRECTION ( 'NONE',  ( 2.555445736705828206E-15, 0.7071067811865435759, 0.7071067811865515695 ) ) ;
#64 = EDGE_LOOP ( 'NONE', ( #153, #264 ) ) ;
#65 = EDGE_CURVE ( 'NONE', #244, #45, #172, .T. ) ;
#66 = ORIENTED_EDGE ( 'NONE', *, *, #228, .F. ) ;
#67 = ORIENTED_EDGE ( 'NONE', *, *, #223, .F. ) ;
#68 = PRODUCT_DEFINITION_FORMATION_WITH_SPECIFIED_SOURCE ( 'ANY', '', #101, .NOT_KNOWN. ) ;
#69 = EDGE_LOOP ( 'NONE', ( #67, #129, #91 ) ) ;
#70 = DIRECTION ( 'NONE',  ( -3.491481338843133355E-15, 1.224646799147353207E-16, -1.000000000000000000 ) ) ;
#71 = DIRECTION ( 'NONE',  ( 0.0000000000000000000, 1.000000000000000000, 0.0000000000000000000 ) ) ;
#72 = AXIS2_PLACEMENT_3D ( 'NONE', #52, #56, #33 ) ;
#73 = PERSON_AND_ORGANIZATION_ROLE ( 'classification_officer' ) ;
#74 = CARTESIAN_POINT ( 'NONE',  ( 5.237222008264750520E-15, 2.768011424025598010E-31, 1.500000000000014433 ) ) ;
#75 = CARTESIAN_POINT ( 'NONE',  ( 1.316288464743861212E-13, -4.616918432785521081E-15, 37.69999999999999574 ) ) ;
#76 = CC_DESIGN_DATE_AND_TIME_ASSIGNMENT ( #130, #272, ( #184 ) ) ;
#77 = CARTESIAN_POINT ( 'NONE',  ( 5.237222008264741843E-15, -1.499999999999996003, 1.500000000000011990 ) ) ;
#78 =( GEOMETRIC_REPRESENTATION_CONTEXT ( 3 ) GLOBAL_UNCERTAINTY_ASSIGNED_CONTEXT ( ( #215 ) ) GLOBAL_UNIT_ASSIGNED_CONTEXT ( ( #145, #19, #190 ) ) REPRESENTATION_CONTEXT ( 'NONE', 'WORKASPACE' ) );
#79 = FACE_OUTER_BOUND ( 'NONE', #69, .T. ) ;
#80 = AXIS2_PLACEMENT_3D ( 'NONE', #263, #232, #18 ) ;
#81 = DIRECTION ( 'NONE',  ( 4.275831445896958607E-31, 1.000000000000000000, 1.224646799147353207E-16 ) ) ;
#82 = DIRECTION ( 'NONE',  ( -2.382254525458723780E-15, -0.7071067811865453523, -0.7071067811865496822 ) ) ;
#83 = ORIENTED_EDGE ( 'NONE', *, *, #38, .T. ) ;
#84 = CARTESIAN_POINT ( 'NONE',  ( 5.237222008264743420E-15, 1.499999999999995559, 1.500000000000012434 ) ) ;
#85 = ORIENTED_EDGE ( 'NONE', *, *, #49, .T. ) ;
#86 = PERSON_AND_ORGANIZATION ( #208, #206 ) ;
#87 = ORIENTED_EDGE ( 'NONE', *, *, #35, .F. ) ;
#88 = EDGE_CURVE ( 'NONE', #45, #244, #199, .T. ) ;
#89 = CC_DESIGN_APPROVAL ( #267, ( #68 ) ) ;
#90 = DATE_AND_TIME ( #46, #258 ) ;
#91 = ORIENTED_EDGE ( 'NONE', *, *, #230, .T. ) ;
#92 = CARTESIAN_POINT ( 'NONE',  ( 5.237222008264750520E-15, 2.768011424025598010E-31, 1.500000000000014433 ) ) ;
#93 = COORDINATED_UNIVERSAL_TIME_OFFSET ( 1, 0, .AHEAD. ) ;
#94 = MANIFOLD_SOLID_BREP ( 'Corps-Déplacer/Copier1[2]', #279 ) ;
#95 = FACE_OUTER_BOUND ( 'NONE', #107, .T. ) ;
#96 = APPROVAL_PERSON_ORGANIZATION ( #86, #267, #160 ) ;
#97 = FACE_OUTER_BOUND ( 'NONE', #191, .T. ) ;
#98 = LINE ( 'NONE', #104, #219 ) ;
#99 = CIRCLE ( 'NONE', #13, 1.499999999999995781 ) ;
#100 = CARTESIAN_POINT ( 'NONE',  ( 0.0000000000000000000, 0.0000000000000000000, 0.0000000000000000000 ) ) ;
#101 = PRODUCT ( '34090', '34090', '', ( #21 ) ) ;
#102 = PERSON_AND_ORGANIZATION ( #208, #206 ) ;
#103 = CONICAL_SURFACE ( 'NONE', #43, 1.200000000000000844, 0.7853981633974453924 ) ;
#104 = CARTESIAN_POINT ( 'NONE',  ( 1.326762908760390423E-13, 1.199999999999996181, 38.00000000000000000 ) ) ;
#105 = ORIENTED_EDGE ( 'NONE', *, *, #139, .T. ) ;
#106 = EDGE_CURVE ( 'NONE', #127, #284, #140, .T. ) ;
#107 = EDGE_LOOP ( 'NONE', ( #83, #105, #218, #247 ) ) ;
#108 = PERSON_AND_ORGANIZATION_ROLE ( 'creator' ) ;
#109 = APPROVAL_STATUS ( 'not_yet_approved' ) ;
#110 = PRODUCT_RELATED_PRODUCT_CATEGORY ( 'detail', '', ( #101 ) ) ;
#111 = LOCAL_TIME ( 9, 46, 53.00000000000000000, #60 ) ;
#112 = DIRECTION ( 'NONE',  ( -3.491481338843133355E-15, 1.224646799147353207E-16, -1.000000000000000000 ) ) ;
#113 = DATE_AND_TIME ( #144, #111 ) ;
#114 = CARTESIAN_POINT ( 'NONE',  ( 1.326762908760390423E-13, -4.653657836759941941E-15, 38.00000000000000000 ) ) ;
#115 = CYLINDRICAL_SURFACE ( 'NONE', #58, 1.499999999999998224 ) ;
#116 = AXIS2_PLACEMENT_3D ( 'NONE', #222, #131, #71 ) ;
#117 = PLANE ( 'NONE',  #62 ) ;
#118 = DIRECTION ( 'NONE',  ( 3.491481338843133355E-15, -1.224646799147353207E-16, 1.000000000000000000 ) ) ;
#119 = ADVANCED_FACE ( 'NONE', ( #29 ), #252, .T. ) ;
#120 = CIRCLE ( 'NONE', #72, 1.500000000000000666 ) ;
#121 = LOCAL_TIME ( 9, 46, 53.00000000000000000, #242 ) ;
#122 = FACE_OUTER_BOUND ( 'NONE', #268, .T. ) ;
#123 = DIRECTION ( 'NONE',  ( -2.468850131082271655E-15, 0.7071067811865455743, -0.7071067811865493491 ) ) ;
#124 = EDGE_LOOP ( 'NONE', ( #87, #150 ) ) ;
#125 = ORIENTED_EDGE ( 'NONE', *, *, #35, .T. ) ;
#126 = CIRCLE ( 'NONE', #167, 1.499999999999995781 ) ;
#127 = VERTEX_POINT ( 'NONE', #50 ) ;
#128 = APPROVAL_STATUS ( 'not_yet_approved' ) ;
#129 = ORIENTED_EDGE ( 'NONE', *, *, #253, .T. ) ;
#130 = DATE_AND_TIME ( #178, #10 ) ;
#131 = DIRECTION ( 'NONE',  ( -3.491481338843133355E-15, 1.224646799147353207E-16, -1.000000000000000000 ) ) ;
#132 = AXIS2_PLACEMENT_3D ( 'NONE', #114, #201, #254 ) ;
#133 = DIRECTION ( 'NONE',  ( -3.491481338843133355E-15, 1.224646799147353207E-16, -1.000000000000000000 ) ) ;
#134 = CC_DESIGN_PERSON_AND_ORGANIZATION_ASSIGNMENT ( #155, #108, ( #184 ) ) ;
#135 = DIRECTION ( 'NONE',  ( -4.275831445896958607E-31, -1.000000000000000000, -1.224646799147353207E-16 ) ) ;
#136 = APPLICATION_CONTEXT ( 'configuration controlled 3d designs of mechanical parts and assemblies' ) ;
#137 = LINE ( 'NONE', #54, #164 ) ;
#138 = CIRCLE ( 'NONE', #179, 1.499999999999995781 ) ;
#139 = EDGE_CURVE ( 'NONE', #209, #237, #137, .T. ) ;
#140 = LINE ( 'NONE', #156, #226 ) ;
#141 = APPROVAL ( #128, 'UNSPECIFIED' ) ;
#142 = CC_DESIGN_SECURITY_CLASSIFICATION ( #256, ( #68 ) ) ;
#143 = APPLICATION_PROTOCOL_DEFINITION ( 'international standard', 'config_control_design', 1994, #151 ) ;
#144 = CALENDAR_DATE ( 2021, 21, 9 ) ;
#145 =( LENGTH_UNIT ( ) NAMED_UNIT ( * ) SI_UNIT ( .MILLI., .METRE. ) );
#146 = CIRCLE ( 'NONE', #5, 1.500000000000000666 ) ;
#147 = ORIENTED_EDGE ( 'NONE', *, *, #106, .T. ) ;
#148 = FACE_OUTER_BOUND ( 'NONE', #240, .T. ) ;
#149 = ORIENTED_EDGE ( 'NONE', *, *, #65, .T. ) ;
#150 = ORIENTED_EDGE ( 'NONE', *, *, #230, .F. ) ;
#151 = APPLICATION_CONTEXT ( 'configuration controlled 3d designs of mechanical parts and assemblies' ) ;
#152 = CIRCLE ( 'NONE', #243, 1.499999999999995781 ) ;
#153 = ORIENTED_EDGE ( 'NONE', *, *, #14, .T. ) ;
#154 = ORIENTED_EDGE ( 'NONE', *, *, #257, .F. ) ;
#155 = PERSON_AND_ORGANIZATION ( #208, #206 ) ;
#156 = CARTESIAN_POINT ( 'NONE',  ( 6.413747168845430903E-31, 1.499999999999998224, 1.836970198721027715E-16 ) ) ;
#157 = PERSON_AND_ORGANIZATION ( #208, #206 ) ;
#158 = CARTESIAN_POINT ( 'NONE',  ( 5.237222008264741843E-15, -1.499999999999996003, 1.500000000000011990 ) ) ;
#159 = AXIS2_PLACEMENT_3D ( 'NONE', #16, #265, #212 ) ;
#160 = APPROVAL_ROLE ( '' ) ;
#161 = DIRECTION ( 'NONE',  ( 3.491481338843133355E-15, -1.224646799147353207E-16, 1.000000000000000000 ) ) ;
#162 = DIRECTION ( 'NONE',  ( -3.491481338843133355E-15, 1.224646799147353207E-16, -1.000000000000000000 ) ) ;
#163 = FACE_OUTER_BOUND ( 'NONE', #1, .T. ) ;
#164 = VECTOR ( 'NONE', #11, 1000.000000000000000 ) ;
#165 = CC_DESIGN_DATE_AND_TIME_ASSIGNMENT ( #90, #48, ( #256 ) ) ;
#166 = ADVANCED_FACE ( 'NONE', ( #202 ), #103, .T. ) ;
#167 = AXIS2_PLACEMENT_3D ( 'NONE', #276, #70, #183 ) ;
#168 = CARTESIAN_POINT ( 'NONE',  ( 1.328232484919367446E-13, -1.200000000000005285, 38.00000000000000000 ) ) ;
#169 = LINE ( 'NONE', #168, #273 ) ;
#170 = PRODUCT_DEFINITION_SHAPE ( 'NONE', 'NONE',  #184 ) ;
#171 = CYLINDRICAL_SURFACE ( 'NONE', #80, 1.499999999999998224 ) ;
#172 = CIRCLE ( 'NONE', #132, 1.200000000000000844 ) ;
#173 = ORIENTED_EDGE ( 'NONE', *, *, #65, .F. ) ;
#174 = VERTEX_POINT ( 'NONE', #220 ) ;
#175 = APPROVAL_DATE_TIME ( #287, #267 ) ;
#176 = APPROVAL ( #280, 'UNSPECIFIED' ) ;
#177 = ORIENTED_EDGE ( 'NONE', *, *, #88, .F. ) ;
#178 = CALENDAR_DATE ( 2021, 21, 9 ) ;
#179 = AXIS2_PLACEMENT_3D ( 'NONE', #40, #207, #188 ) ;
#180 = PERSON_AND_ORGANIZATION_ROLE ( 'design_supplier' ) ;
#181 = LINE ( 'NONE', #158, #39 ) ;
#182 = DIRECTION ( 'NONE',  ( -5.135813185032643538E-31, -1.000000000000000000, -1.445602896647343354E-16 ) ) ;
#183 = DIRECTION ( 'NONE',  ( 5.135813185032643538E-31, 1.000000000000000000, 1.445602896647343354E-16 ) ) ;
#184 = PRODUCT_DEFINITION ( 'UNKNOWN', '', #68, #3 ) ;
#185 = MANIFOLD_SOLID_BREP ( 'Corps-Déplacer/Copier1[1]', #224 ) ;
#186 = DIRECTION ( 'NONE',  ( 4.275831445896958607E-31, 1.000000000000000000, 1.224646799147353207E-16 ) ) ;
#187 = CC_DESIGN_APPROVAL ( #176, ( #184 ) ) ;
#188 = DIRECTION ( 'NONE',  ( 5.135813185032643538E-31, 1.000000000000000000, 1.445602896647343354E-16 ) ) ;
#189 = CARTESIAN_POINT ( 'NONE',  ( 5.420919028136846142E-15, 1.499999999999995559, 1.500000000000012434 ) ) ;
#190 =( NAMED_UNIT ( * ) SI_UNIT ( $, .STERADIAN. ) SOLID_ANGLE_UNIT ( ) );
#191 = EDGE_LOOP ( 'NONE', ( #210, #196, #125 ) ) ;
#192 = CARTESIAN_POINT ( 'NONE',  ( 5.237222008264742631E-15, -1.836970198721044725E-16, 1.500000000000012212 ) ) ;
#193 = CC_DESIGN_APPROVAL ( #141, ( #256 ) ) ;
#194 = PERSON_AND_ORGANIZATION ( #208, #206 ) ;
#195 = ADVANCED_FACE ( 'NONE', ( #163 ), #17, .T. ) ;
#196 = ORIENTED_EDGE ( 'NONE', *, *, #223, .T. ) ;
#197 = PERSON_AND_ORGANIZATION ( #208, #206 ) ;
#198 = PERSON_AND_ORGANIZATION ( #208, #206 ) ;
#199 = CIRCLE ( 'NONE', #116, 1.200000000000000844 ) ;
#200 = VERTEX_POINT ( 'NONE', #221 ) ;
#201 = DIRECTION ( 'NONE',  ( -3.491481338843133355E-15, 1.224646799147353207E-16, -1.000000000000000000 ) ) ;
#202 = FACE_OUTER_BOUND ( 'NONE', #6, .T. ) ;
#203 = CARTESIAN_POINT ( 'NONE',  ( 5.237222008264742631E-15, -1.836970198721044725E-16, 1.500000000000012212 ) ) ;
#204 = CARTESIAN_POINT ( 'NONE',  ( 6.861673126119733978E-14, -1.500000000000005551, 37.69999999999999574 ) ) ;
#205 = DIRECTION ( 'NONE',  ( 5.135813185032643538E-31, 1.000000000000000000, 1.445602896647343354E-16 ) ) ;
#206 = ORGANIZATION ( 'UNSPECIFIED', 'UNSPECIFIED', '' ) ;
#207 = DIRECTION ( 'NONE',  ( -3.491481338843133355E-15, 1.224646799147353207E-16, -1.000000000000000000 ) ) ;
#208 = PERSON ( 'UNSPECIFIED', 'UNSPECIFIED', 'UNSPECIFIED', ('UNSPECIFIED'), ('UNSPECIFIED'), ('UNSPECIFIED') ) ;
#209 = VERTEX_POINT ( 'NONE', #204 ) ;
#210 = ORIENTED_EDGE ( 'NONE', *, *, #253, .F. ) ;
#211 = ADVANCED_FACE ( 'NONE', ( #95 ), #115, .T. ) ;
#212 = DIRECTION ( 'NONE',  ( 1.000000000000000000, 0.0000000000000000000, 0.0000000000000000000 ) ) ;
#213 = DATE_AND_TIME ( #270, #34 ) ;
#214 = ORIENTED_EDGE ( 'NONE', *, *, #274, .F. ) ;
#215 = UNCERTAINTY_MEASURE_WITH_UNIT (LENGTH_MEASURE( 1.000000000000000082E-05 ), #145, 'distance_accuracy_value', 'NONE');
#216 = APPROVAL_DATE_TIME ( #113, #176 ) ;
#217 = ADVANCED_FACE ( 'NONE', ( #275 ), #117, .F. ) ;
#218 = ORIENTED_EDGE ( 'NONE', *, *, #14, .F. ) ;
#219 = VECTOR ( 'NONE', #123, 1000.000000000000114 ) ;
#220 = CARTESIAN_POINT ( 'NONE',  ( 0.0000000000000000000, 0.0000000000000000000, 0.0000000000000000000 ) ) ;
#221 = CARTESIAN_POINT ( 'NONE',  ( 5.420919028136846142E-15, 1.499999999999995559, 1.500000000000012434 ) ) ;
#222 = CARTESIAN_POINT ( 'NONE',  ( 1.326762908760390423E-13, -4.653657836759941941E-15, 38.00000000000000000 ) ) ;
#223 = EDGE_CURVE ( 'NONE', #174, #41, #181, .T. ) ;
#224 = CLOSED_SHELL ( 'NONE', ( #195, #211, #217, #239, #166, #282 ) ) ;
#225 = DIRECTION ( 'NONE',  ( -4.275831445896958607E-31, -1.000000000000000000, -1.224646799147353207E-16 ) ) ;
#226 = VECTOR ( 'NONE', #53, 1000.000000000000000 ) ;
#227 = DIRECTION ( 'NONE',  ( 0.0000000000000000000, 1.000000000000000000, 0.0000000000000000000 ) ) ;
#228 = EDGE_CURVE ( 'NONE', #45, #127, #98, .T. ) ;
#229 = AXIS2_PLACEMENT_3D ( 'NONE', #255, #112, #8 ) ;
#230 = EDGE_CURVE ( 'NONE', #200, #41, #138, .T. ) ;
#231 = DIRECTION ( 'NONE',  ( -3.491481338843133355E-15, 1.224646799147353207E-16, -1.000000000000000000 ) ) ;
#232 = DIRECTION ( 'NONE',  ( -3.491481338843133355E-15, 1.224646799147353207E-16, -1.000000000000000000 ) ) ;
#233 = CC_DESIGN_PERSON_AND_ORGANIZATION_ASSIGNMENT ( #198, #73, ( #256 ) ) ;
#234 = AXIS2_PLACEMENT_3D ( 'NONE', #192, #286, #261 ) ;
#235 = PLANE ( 'NONE',  #285 ) ;
#236 = CC_DESIGN_PERSON_AND_ORGANIZATION_ASSIGNMENT ( #194, #22, ( #68 ) ) ;
#237 = VERTEX_POINT ( 'NONE', #37 ) ;
#238 = DIRECTION ( 'NONE',  ( -3.491481338843133355E-15, 1.224646799147353207E-16, -1.000000000000000000 ) ) ;
#239 = ADVANCED_FACE ( 'NONE', ( #122 ), #171, .T. ) ;
#240 = EDGE_LOOP ( 'NONE', ( #177, #173 ) ) ;
#241 = APPLICATION_PROTOCOL_DEFINITION ( 'international standard', 'config_control_design', 1994, #136 ) ;
#242 = COORDINATED_UNIVERSAL_TIME_OFFSET ( 1, 0, .AHEAD. ) ;
#243 = AXIS2_PLACEMENT_3D ( 'NONE', #203, #26, #7 ) ;
#244 = VERTEX_POINT ( 'NONE', #61 ) ;
#245 = ADVANCED_FACE ( 'NONE', ( #79 ), #262, .T. ) ;
#246 = APPROVAL_ROLE ( '' ) ;
#247 = ORIENTED_EDGE ( 'NONE', *, *, #106, .F. ) ;
#248 = SHAPE_DEFINITION_REPRESENTATION ( #170, #9 ) ;
#249 = CARTESIAN_POINT ( 'NONE',  ( 5.237222008264742631E-15, -1.836970198721044725E-16, 1.500000000000012212 ) ) ;
#250 = APPROVAL_PERSON_ORGANIZATION ( #197, #141, #246 ) ;
#251 = DIRECTION ( 'NONE',  ( 0.0000000000000000000, 1.000000000000000000, 0.0000000000000000000 ) ) ;
#252 = PLANE ( 'NONE',  #51 ) ;
#253 = EDGE_CURVE ( 'NONE', #174, #200, #36, .T. ) ;
#254 = DIRECTION ( 'NONE',  ( 0.0000000000000000000, 1.000000000000000000, 0.0000000000000000000 ) ) ;
#255 = CARTESIAN_POINT ( 'NONE',  ( 1.326762908760390423E-13, -4.653657836759941941E-15, 38.00000000000000000 ) ) ;
#256 = SECURITY_CLASSIFICATION ( '', '', #4 ) ;
#257 = EDGE_CURVE ( 'NONE', #237, #284, #99, .T. ) ;
#258 = LOCAL_TIME ( 9, 46, 53.00000000000000000, #93 ) ;
#259 = PERSON_AND_ORGANIZATION ( #208, #206 ) ;
#260 = APPROVAL_ROLE ( '' ) ;
#261 = DIRECTION ( 'NONE',  ( -5.135813185032643538E-31, -1.000000000000000000, -1.445602896647343354E-16 ) ) ;
#262 = CONICAL_SURFACE ( 'NONE', #234, 1.499999999999995781, 0.7853981633974428389 ) ;
#263 = CARTESIAN_POINT ( 'NONE',  ( 0.0000000000000000000, 0.0000000000000000000, 0.0000000000000000000 ) ) ;
#264 = ORIENTED_EDGE ( 'NONE', *, *, #257, .T. ) ;
#265 = DIRECTION ( 'NONE',  ( 0.0000000000000000000, 0.0000000000000000000, 1.000000000000000000 ) ) ;
#266 = ORIENTED_EDGE ( 'NONE', *, *, #274, .T. ) ;
#267 = APPROVAL ( #109, 'UNSPECIFIED' ) ;
#268 = EDGE_LOOP ( 'NONE', ( #47, #85, #147, #154 ) ) ;
#269 = ORIENTED_EDGE ( 'NONE', *, *, #88, .T. ) ;
#270 = CALENDAR_DATE ( 2021, 21, 9 ) ;
#271 = DIRECTION ( 'NONE',  ( 3.491481338843133355E-15, -1.224646799147353207E-16, 1.000000000000000000 ) ) ;
#272 = DATE_TIME_ROLE ( 'creation_date' ) ;
#273 = VECTOR ( 'NONE', #82, 1000.000000000000000 ) ;
#274 = EDGE_CURVE ( 'NONE', #244, #209, #169, .T. ) ;
#275 = FACE_OUTER_BOUND ( 'NONE', #64, .T. ) ;
#276 = CARTESIAN_POINT ( 'NONE',  ( 5.237222008264742631E-15, -1.836970198721044725E-16, 1.500000000000012212 ) ) ;
#277 = CARTESIAN_POINT ( 'NONE',  ( 1.326762908760390423E-13, -4.653657836759941941E-15, 38.00000000000000000 ) ) ;
#278 = CONICAL_SURFACE ( 'NONE', #55, 1.499999999999995781, 0.7853981633974428389 ) ;
#279 = CLOSED_SHELL ( 'NONE', ( #245, #30, #119 ) ) ;
#280 = APPROVAL_STATUS ( 'not_yet_approved' ) ;
#281 = CARTESIAN_POINT ( 'NONE',  ( 5.237222008264742631E-15, -1.836970198721044725E-16, 1.500000000000012212 ) ) ;
#282 = ADVANCED_FACE ( 'NONE', ( #148 ), #235, .F. ) ;
#283 = CARTESIAN_POINT ( 'NONE',  ( 1.326762908760390423E-13, 8.998558695971082698E-33, 38.00000000000000000 ) ) ;
#284 = VERTEX_POINT ( 'NONE', #84 ) ;
#285 = AXIS2_PLACEMENT_3D ( 'NONE', #283, #231, #81 ) ;
#286 = DIRECTION ( 'NONE',  ( 3.491481338843133355E-15, -1.224646799147353207E-16, 1.000000000000000000 ) ) ;
#287 = DATE_AND_TIME ( #23, #121 ) ;
ENDSEC;
END-ISO-10303-21;
