ISO-10303-21;
HEADER;
FILE_DESCRIPTION (( 'STEP AP203' ),
    '1' );
FILE_NAME ('3408.step',
    '2021-12-06T12:58:49',
    ( '' ),
    ( '' ),
    'SwSTEP 2.0',
    'SolidWorks 2019',
    '' );
FILE_SCHEMA (( 'CONFIG_CONTROL_DESIGN' ));
ENDSEC;

DATA;
#1 = ORIENTED_EDGE ( 'NONE', *, *, #49, .F. ) ;
#2 = CARTESIAN_POINT ( 'NONE',  ( -1.068957861474239564E-30, 3.749399456654644020E-32, -3.061616997868383141E-16 ) ) ;
#3 = EDGE_CURVE ( 'NONE', #137, #137, #13, .T. ) ;
#4 = CYLINDRICAL_SURFACE ( 'NONE', #36, 2.500000000000000000 ) ;
#5 = SECURITY_CLASSIFICATION ( '', '', #138 ) ;
#6 = DIRECTION ( 'NONE',  ( 4.622231866529366047E-31, 1.000000000000000000, 1.301042606982605321E-16 ) ) ;
#7 = PLANE ( 'NONE',  #130 ) ;
#8 = FACE_BOUND ( 'NONE', #108, .T. ) ;
#9 = DATE_AND_TIME ( #126, #53 ) ;
#10 = APPROVAL_STATUS ( 'not_yet_approved' ) ;
#11 = PERSON_AND_ORGANIZATION ( #41, #26 ) ;
#12 = COORDINATED_UNIVERSAL_TIME_OFFSET ( 1, 0, .AHEAD. ) ;
#13 = CIRCLE ( 'NONE', #119, 2.500000000000000000 ) ;
#14 = DIRECTION ( 'NONE',  ( -3.491481338843133355E-15, 1.224646799147353207E-16, -1.000000000000000000 ) ) ;
#15 =( NAMED_UNIT ( * ) PLANE_ANGLE_UNIT ( ) SI_UNIT ( $, .RADIAN. ) );
#16 = CARTESIAN_POINT ( 'NONE',  ( -4.275831445896958256E-30, 1.499759782661857608E-31, -1.224646799147353256E-15 ) ) ;
#17 = APPROVAL ( #166, 'UNSPECIFIED' ) ;
#18 = APPROVAL_PERSON_ORGANIZATION ( #48, #157, #90 ) ;
#19 = CARTESIAN_POINT ( 'NONE',  ( 0.0000000000000000000, 0.0000000000000000000, 0.0000000000000000000 ) ) ;
#20 = VERTEX_POINT ( 'NONE', #85 ) ;
#21 = APPROVAL_ROLE ( '' ) ;
#22 = CALENDAR_DATE ( 2021, 6, 12 ) ;
#23 = PERSON_AND_ORGANIZATION ( #41, #26 ) ;
#24 = ADVANCED_BREP_SHAPE_REPRESENTATION ( '3408', ( #100, #152 ), #68 ) ;
#25 = EDGE_LOOP ( 'NONE', ( #1 ) ) ;
#26 = ORGANIZATION ( 'UNSPECIFIED', 'UNSPECIFIED', '' ) ;
#27 = EDGE_LOOP ( 'NONE', ( #124 ) ) ;
#28 = DIRECTION ( 'NONE',  ( -4.275831445896958607E-31, -1.000000000000000000, -1.224646799147353207E-16 ) ) ;
#29 = DIRECTION ( 'NONE',  ( 4.275831445896958607E-31, 1.000000000000000000, 1.224646799147353207E-16 ) ) ;
#30 = CARTESIAN_POINT ( 'NONE',  ( -1.603436792211359872E-30, 2.500000000000000000, -4.592425496802574958E-16 ) ) ;
#31 = COORDINATED_UNIVERSAL_TIME_OFFSET ( 1, 0, .AHEAD. ) ;
#32 = AXIS2_PLACEMENT_3D ( 'NONE', #16, #75, #136 ) ;
#33 = PERSON_AND_ORGANIZATION_ROLE ( 'creator' ) ;
#34 = PERSON_AND_ORGANIZATION ( #41, #26 ) ;
#35 = PERSON_AND_ORGANIZATION_ROLE ( 'design_owner' ) ;
#36 = AXIS2_PLACEMENT_3D ( 'NONE', #19, #14, #29 ) ;
#37 = CLOSED_SHELL ( 'NONE', ( #169, #132, #116, #106 ) ) ;
#38 = PRODUCT_DEFINITION_SHAPE ( 'NONE', 'NONE',  #154 ) ;
#39 = APPROVAL_PERSON_ORGANIZATION ( #168, #61, #21 ) ;
#40 = DIRECTION ( 'NONE',  ( -3.491481338843133355E-15, 1.224646799147353207E-16, -1.000000000000000000 ) ) ;
#41 = PERSON ( 'UNSPECIFIED', 'UNSPECIFIED', 'UNSPECIFIED', ('UNSPECIFIED'), ('UNSPECIFIED'), ('UNSPECIFIED') ) ;
#42 = CARTESIAN_POINT ( 'NONE',  ( 0.0000000000000000000, 10.00000000000000000, 0.0000000000000000000 ) ) ;
#43 = CIRCLE ( 'NONE', #32, 10.00000000000000000 ) ;
#44 = LOCAL_TIME ( 13, 58, 49.00000000000000000, #51 ) ;
#45 = ORIENTED_EDGE ( 'NONE', *, *, #150, .T. ) ;
#46 = FACE_OUTER_BOUND ( 'NONE', #27, .T. ) ;
#47 = FACE_OUTER_BOUND ( 'NONE', #83, .T. ) ;
#48 = PERSON_AND_ORGANIZATION ( #41, #26 ) ;
#49 = EDGE_CURVE ( 'NONE', #20, #20, #155, .T. ) ;
#50 = DATE_AND_TIME ( #79, #88 ) ;
#51 = COORDINATED_UNIVERSAL_TIME_OFFSET ( 1, 0, .AHEAD. ) ;
#52 = APPROVAL_ROLE ( '' ) ;
#53 = LOCAL_TIME ( 13, 58, 49.00000000000000000, #12 ) ;
#54 = CARTESIAN_POINT ( 'NONE',  ( 0.0000000000000000000, 0.0000000000000000000, 0.0000000000000000000 ) ) ;
#55 = PRODUCT ( '3408', '3408', '', ( #114 ) ) ;
#56 = CARTESIAN_POINT ( 'NONE',  ( 4.888073874380386697E-15, 2.500000000000000000, 1.399999999999999911 ) ) ;
#57 = DIRECTION ( 'NONE',  ( 4.275831445896958607E-31, 1.000000000000000000, 1.224646799147353207E-16 ) ) ;
#58 = PRODUCT_DEFINITION_FORMATION_WITH_SPECIFIED_SOURCE ( 'ANY', '', #55, .NOT_KNOWN. ) ;
#59 = DIRECTION ( 'NONE',  ( -3.491481338843133355E-15, 1.224646799147353207E-16, -1.000000000000000000 ) ) ;
#60 = CARTESIAN_POINT ( 'NONE',  ( 4.888073874380381964E-15, -1.714505518806292666E-16, 1.399999999999998579 ) ) ;
#61 = APPROVAL ( #10, 'UNSPECIFIED' ) ;
#62 = ORIENTED_EDGE ( 'NONE', *, *, #70, .F. ) ;
#63 = AXIS2_PLACEMENT_3D ( 'NONE', #30, #98, #89 ) ;
#64 = APPROVAL_DATE_TIME ( #9, #157 ) ;
#65 =( NAMED_UNIT ( * ) SI_UNIT ( $, .STERADIAN. ) SOLID_ANGLE_UNIT ( ) );
#66 = CC_DESIGN_PERSON_AND_ORGANIZATION_ASSIGNMENT ( #34, #67, ( #58 ) ) ;
#67 = PERSON_AND_ORGANIZATION_ROLE ( 'design_supplier' ) ;
#68 =( GEOMETRIC_REPRESENTATION_CONTEXT ( 3 ) GLOBAL_UNCERTAINTY_ASSIGNED_CONTEXT ( ( #102 ) ) GLOBAL_UNIT_ASSIGNED_CONTEXT ( ( #97, #15, #65 ) ) REPRESENTATION_CONTEXT ( 'NONE', 'WORKASPACE' ) );
#69 = APPROVAL_PERSON_ORGANIZATION ( #151, #17, #52 ) ;
#70 = EDGE_CURVE ( 'NONE', #72, #72, #43, .T. ) ;
#71 = DIRECTION ( 'NONE',  ( 3.081487911019577365E-31, 1.000000000000000000, 8.673617379884035472E-17 ) ) ;
#72 = VERTEX_POINT ( 'NONE', #42 ) ;
#73 = CARTESIAN_POINT ( 'NONE',  ( 4.888073874380385120E-15, 2.500000000000000000, 1.399999999999999467 ) ) ;
#74 = FACE_OUTER_BOUND ( 'NONE', #121, .T. ) ;
#75 = DIRECTION ( 'NONE',  ( -3.491481338843133355E-15, 1.224646799147353207E-16, -1.000000000000000000 ) ) ;
#76 = DATE_TIME_ROLE ( 'classification_date' ) ;
#77 = LOCAL_TIME ( 13, 58, 49.00000000000000000, #31 ) ;
#78 = CC_DESIGN_SECURITY_CLASSIFICATION ( #5, ( #58 ) ) ;
#79 = CALENDAR_DATE ( 2021, 6, 12 ) ;
#80 = DIRECTION ( 'NONE',  ( 1.000000000000000000, 0.0000000000000000000, 0.0000000000000000000 ) ) ;
#81 = DIRECTION ( 'NONE',  ( 0.0000000000000000000, 0.0000000000000000000, 1.000000000000000000 ) ) ;
#82 = PERSON_AND_ORGANIZATION_ROLE ( 'classification_officer' ) ;
#83 = EDGE_LOOP ( 'NONE', ( #94 ) ) ;
#84 = PRODUCT_RELATED_PRODUCT_CATEGORY ( 'detail', '', ( #55 ) ) ;
#85 = CARTESIAN_POINT ( 'NONE',  ( 0.0000000000000000000, 2.500000000000000000, 0.0000000000000000000 ) ) ;
#86 = CARTESIAN_POINT ( 'NONE',  ( 0.0000000000000000000, 0.0000000000000000000, 0.0000000000000000000 ) ) ;
#87 = DIRECTION ( 'NONE',  ( 4.275831445896958607E-31, 1.000000000000000000, 1.224646799147353207E-16 ) ) ;
#88 = LOCAL_TIME ( 13, 58, 49.00000000000000000, #91 ) ;
#89 = DIRECTION ( 'NONE',  ( 4.275831445896958607E-31, 1.000000000000000000, 1.224646799147353207E-16 ) ) ;
#90 = APPROVAL_ROLE ( '' ) ;
#91 = COORDINATED_UNIVERSAL_TIME_OFFSET ( 1, 0, .AHEAD. ) ;
#92 = CC_DESIGN_PERSON_AND_ORGANIZATION_ASSIGNMENT ( #143, #148, ( #58 ) ) ;
#93 = AXIS2_PLACEMENT_3D ( 'NONE', #60, #123, #6 ) ;
#94 = ORIENTED_EDGE ( 'NONE', *, *, #70, .T. ) ;
#95 = CC_DESIGN_DATE_AND_TIME_ASSIGNMENT ( #129, #76, ( #5 ) ) ;
#96 = APPLICATION_CONTEXT ( 'configuration controlled 3d designs of mechanical parts and assemblies' ) ;
#97 =( LENGTH_UNIT ( ) NAMED_UNIT ( * ) SI_UNIT ( .MILLI., .METRE. ) );
#98 = DIRECTION ( 'NONE',  ( -3.491481338843133355E-15, 1.224646799147353207E-16, -1.000000000000000000 ) ) ;
#99 = CARTESIAN_POINT ( 'NONE',  ( 4.888073874380385909E-15, -1.714505518806294145E-16, 1.399999999999999689 ) ) ;
#100 = MANIFOLD_SOLID_BREP ( 'Corps-Déplacer/Copier1', #37 ) ;
#101 = FACE_BOUND ( 'NONE', #25, .T. ) ;
#102 = UNCERTAINTY_MEASURE_WITH_UNIT (LENGTH_MEASURE( 1.000000000000000082E-05 ), #97, 'distance_accuracy_value', 'NONE');
#103 = APPROVAL_STATUS ( 'not_yet_approved' ) ;
#104 = COORDINATED_UNIVERSAL_TIME_OFFSET ( 1, 0, .AHEAD. ) ;
#105 = APPROVAL_DATE_TIME ( #163, #17 ) ;
#106 = ADVANCED_FACE ( 'NONE', ( #46, #146 ), #4, .F. ) ;
#107 = CC_DESIGN_APPROVAL ( #61, ( #58 ) ) ;
#108 = EDGE_LOOP ( 'NONE', ( #162 ) ) ;
#109 = CARTESIAN_POINT ( 'NONE',  ( 4.888073874380386697E-15, 10.00000000000000000, 1.399999999999999911 ) ) ;
#110 = ORIENTED_EDGE ( 'NONE', *, *, #150, .F. ) ;
#111 = EDGE_LOOP ( 'NONE', ( #161 ) ) ;
#112 = AXIS2_PLACEMENT_3D ( 'NONE', #2, #59, #87 ) ;
#113 = PERSON_AND_ORGANIZATION ( #41, #26 ) ;
#114 = MECHANICAL_CONTEXT ( 'NONE', #144, 'mechanical' ) ;
#115 = LOCAL_TIME ( 13, 58, 49.00000000000000000, #104 ) ;
#116 = ADVANCED_FACE ( 'NONE', ( #8, #134 ), #7, .T. ) ;
#117 = DATE_TIME_ROLE ( 'creation_date' ) ;
#118 = EDGE_LOOP ( 'NONE', ( #62 ) ) ;
#119 = AXIS2_PLACEMENT_3D ( 'NONE', #99, #40, #71 ) ;
#120 = CC_DESIGN_PERSON_AND_ORGANIZATION_ASSIGNMENT ( #11, #33, ( #154 ) ) ;
#121 = EDGE_LOOP ( 'NONE', ( #45 ) ) ;
#122 = CYLINDRICAL_SURFACE ( 'NONE', #133, 10.00000000000000000 ) ;
#123 = DIRECTION ( 'NONE',  ( -3.491481338843133355E-15, 1.224646799147353207E-16, -1.000000000000000000 ) ) ;
#124 = ORIENTED_EDGE ( 'NONE', *, *, #49, .T. ) ;
#125 = CC_DESIGN_DATE_AND_TIME_ASSIGNMENT ( #127, #117, ( #154 ) ) ;
#126 = CALENDAR_DATE ( 2021, 6, 12 ) ;
#127 = DATE_AND_TIME ( #22, #115 ) ;
#128 = APPLICATION_PROTOCOL_DEFINITION ( 'international standard', 'config_control_design', 1994, #144 ) ;
#129 = DATE_AND_TIME ( #141, #44 ) ;
#130 = AXIS2_PLACEMENT_3D ( 'NONE', #73, #135, #28 ) ;
#131 = CC_DESIGN_APPROVAL ( #157, ( #5 ) ) ;
#132 = ADVANCED_FACE ( 'NONE', ( #74, #160 ), #122, .T. ) ;
#133 = AXIS2_PLACEMENT_3D ( 'NONE', #86, #145, #57 ) ;
#134 = FACE_OUTER_BOUND ( 'NONE', #156, .T. ) ;
#135 = DIRECTION ( 'NONE',  ( 3.491481338843133355E-15, -1.224646799147353207E-16, 1.000000000000000000 ) ) ;
#136 = DIRECTION ( 'NONE',  ( 4.275831445896958607E-31, 1.000000000000000000, 1.224646799147353207E-16 ) ) ;
#137 = VERTEX_POINT ( 'NONE', #56 ) ;
#138 = SECURITY_CLASSIFICATION_LEVEL ( 'unclassified' ) ;
#139 = CALENDAR_DATE ( 2021, 6, 12 ) ;
#140 = CC_DESIGN_PERSON_AND_ORGANIZATION_ASSIGNMENT ( #23, #82, ( #5 ) ) ;
#141 = CALENDAR_DATE ( 2021, 6, 12 ) ;
#142 = DESIGN_CONTEXT ( 'detailed design', #96, 'design' ) ;
#143 = PERSON_AND_ORGANIZATION ( #41, #26 ) ;
#144 = APPLICATION_CONTEXT ( 'configuration controlled 3d designs of mechanical parts and assemblies' ) ;
#145 = DIRECTION ( 'NONE',  ( -3.491481338843133355E-15, 1.224646799147353207E-16, -1.000000000000000000 ) ) ;
#146 = FACE_OUTER_BOUND ( 'NONE', #111, .T. ) ;
#147 = PLANE ( 'NONE',  #63 ) ;
#148 = PERSON_AND_ORGANIZATION_ROLE ( 'creator' ) ;
#149 = SHAPE_DEFINITION_REPRESENTATION ( #38, #24 ) ;
#150 = EDGE_CURVE ( 'NONE', #158, #158, #167, .T. ) ;
#151 = PERSON_AND_ORGANIZATION ( #41, #26 ) ;
#152 = AXIS2_PLACEMENT_3D ( 'NONE', #54, #81, #80 ) ;
#153 = APPLICATION_PROTOCOL_DEFINITION ( 'international standard', 'config_control_design', 1994, #96 ) ;
#154 = PRODUCT_DEFINITION ( 'UNKNOWN', '', #58, #142 ) ;
#155 = CIRCLE ( 'NONE', #112, 2.500000000000000000 ) ;
#156 = EDGE_LOOP ( 'NONE', ( #110 ) ) ;
#157 = APPROVAL ( #103, 'UNSPECIFIED' ) ;
#158 = VERTEX_POINT ( 'NONE', #109 ) ;
#159 = CC_DESIGN_APPROVAL ( #17, ( #154 ) ) ;
#160 = FACE_OUTER_BOUND ( 'NONE', #118, .T. ) ;
#161 = ORIENTED_EDGE ( 'NONE', *, *, #3, .F. ) ;
#162 = ORIENTED_EDGE ( 'NONE', *, *, #3, .T. ) ;
#163 = DATE_AND_TIME ( #139, #77 ) ;
#164 = APPROVAL_DATE_TIME ( #50, #61 ) ;
#165 = CC_DESIGN_PERSON_AND_ORGANIZATION_ASSIGNMENT ( #113, #35, ( #55 ) ) ;
#166 = APPROVAL_STATUS ( 'not_yet_approved' ) ;
#167 = CIRCLE ( 'NONE', #93, 10.00000000000000000 ) ;
#168 = PERSON_AND_ORGANIZATION ( #41, #26 ) ;
#169 = ADVANCED_FACE ( 'NONE', ( #47, #101 ), #147, .T. ) ;
ENDSEC;
END-ISO-10303-21;
