ISO-10303-21;
HEADER;
FILE_DESCRIPTION (( 'STEP AP203' ),
    '1' );
FILE_NAME ('3407.step',
    '2021-12-06T12:58:48',
    ( '' ),
    ( '' ),
    'SwSTEP 2.0',
    'SolidWorks 2019',
    '' );
FILE_SCHEMA (( 'CONFIG_CONTROL_DESIGN' ));
ENDSEC;

DATA;
#1 = APPROVAL_ROLE ( '' ) ;
#2 = CC_DESIGN_DATE_AND_TIME_ASSIGNMENT ( #146, #30, ( #73 ) ) ;
#3 = CARTESIAN_POINT ( 'NONE',  ( 0.0000000000000000000, 10.00000000000000000, 0.0000000000000000000 ) ) ;
#4 = PRODUCT_DEFINITION_SHAPE ( 'NONE', 'NONE',  #73 ) ;
#5 = ORIENTED_EDGE ( 'NONE', *, *, #138, .F. ) ;
#6 = CARTESIAN_POINT ( 'NONE',  ( 0.0000000000000000000, 0.0000000000000000000, 0.0000000000000000000 ) ) ;
#7 = DIRECTION ( 'NONE',  ( -3.491481338843133355E-15, 1.130443199212941593E-16, -1.000000000000000000 ) ) ;
#8 = DATE_AND_TIME ( #142, #16 ) ;
#9 = CARTESIAN_POINT ( 'NONE',  ( -9.867303336685292191E-31, 3.194754566616975463E-32, -2.826107998032353858E-16 ) ) ;
#10 = CIRCLE ( 'NONE', #112, 2.500000000000000444 ) ;
#11 = CARTESIAN_POINT ( 'NONE',  ( 4.538925740496070206E-15, 2.500000000000000444, 1.299999999999999156 ) ) ;
#12 =( NAMED_UNIT ( * ) PLANE_ANGLE_UNIT ( ) SI_UNIT ( $, .RADIAN. ) );
#13 = DIRECTION ( 'NONE',  ( 3.081487911019576927E-31, 1.000000000000000000, 8.673617379884034239E-17 ) ) ;
#14 = FACE_BOUND ( 'NONE', #55, .T. ) ;
#15 = EDGE_LOOP ( 'NONE', ( #139 ) ) ;
#16 = LOCAL_TIME ( 13, 58, 48.00000000000000000, #156 ) ;
#17 = EDGE_LOOP ( 'NONE', ( #45 ) ) ;
#18 = CC_DESIGN_PERSON_AND_ORGANIZATION_ASSIGNMENT ( #58, #144, ( #73 ) ) ;
#19 = COORDINATED_UNIVERSAL_TIME_OFFSET ( 1, 0, .AHEAD. ) ;
#20 = CC_DESIGN_APPROVAL ( #35, ( #149 ) ) ;
#21 = APPROVAL_DATE_TIME ( #103, #96 ) ;
#22 = PERSON_AND_ORGANIZATION ( #60, #141 ) ;
#23 = CARTESIAN_POINT ( 'NONE',  ( -3.946921334674116876E-30, 1.277901826646790185E-31, -1.130443199212941543E-15 ) ) ;
#24 = PERSON_AND_ORGANIZATION ( #60, #141 ) ;
#25 = LOCAL_TIME ( 13, 58, 48.00000000000000000, #117 ) ;
#26 = PRODUCT_RELATED_PRODUCT_CATEGORY ( 'detail', '', ( #46 ) ) ;
#27 = PLANE ( 'NONE',  #89 ) ;
#28 = CARTESIAN_POINT ( 'NONE',  ( 0.0000000000000000000, 2.500000000000000000, 0.0000000000000000000 ) ) ;
#29 = APPROVAL ( #120, 'UNSPECIFIED' ) ;
#30 = DATE_TIME_ROLE ( 'creation_date' ) ;
#31 = DIRECTION ( 'NONE',  ( 3.946921334674117052E-31, 1.000000000000000000, 1.130443199212941593E-16 ) ) ;
#32 = APPROVAL_STATUS ( 'not_yet_approved' ) ;
#33 = CC_DESIGN_PERSON_AND_ORGANIZATION_ASSIGNMENT ( #49, #131, ( #116 ) ) ;
#34 = DIRECTION ( 'NONE',  ( 1.000000000000000000, 0.0000000000000000000, 0.0000000000000000000 ) ) ;
#35 = APPROVAL ( #161, 'UNSPECIFIED' ) ;
#36 = DIRECTION ( 'NONE',  ( 0.0000000000000000000, 0.0000000000000000000, 1.000000000000000000 ) ) ;
#37 = DIRECTION ( 'NONE',  ( -3.491481338843133355E-15, 1.130443199212941593E-16, -1.000000000000000000 ) ) ;
#38 = CC_DESIGN_APPROVAL ( #29, ( #73 ) ) ;
#39 = APPLICATION_PROTOCOL_DEFINITION ( 'international standard', 'config_control_design', 1994, #121 ) ;
#40 = EDGE_CURVE ( 'NONE', #124, #124, #10, .T. ) ;
#41 = DIRECTION ( 'NONE',  ( -3.491481338843133355E-15, 1.130443199212941593E-16, -1.000000000000000000 ) ) ;
#42 = FACE_OUTER_BOUND ( 'NONE', #15, .T. ) ;
#43 = CC_DESIGN_DATE_AND_TIME_ASSIGNMENT ( #51, #159, ( #149 ) ) ;
#44 =( GEOMETRIC_REPRESENTATION_CONTEXT ( 3 ) GLOBAL_UNCERTAINTY_ASSIGNED_CONTEXT ( ( #140 ) ) GLOBAL_UNIT_ASSIGNED_CONTEXT ( ( #94, #12, #54 ) ) REPRESENTATION_CONTEXT ( 'NONE', 'WORKASPACE' ) );
#45 = ORIENTED_EDGE ( 'NONE', *, *, #127, .F. ) ;
#46 = PRODUCT ( '3407', '3407', '', ( #81 ) ) ;
#47 = CIRCLE ( 'NONE', #158, 10.00000000000000000 ) ;
#48 = APPROVAL_DATE_TIME ( #8, #29 ) ;
#49 = PERSON_AND_ORGANIZATION ( #60, #141 ) ;
#50 = AXIS2_PLACEMENT_3D ( 'NONE', #23, #63, #130 ) ;
#51 = DATE_AND_TIME ( #52, #122 ) ;
#52 = CALENDAR_DATE ( 2021, 6, 12 ) ;
#53 = COORDINATED_UNIVERSAL_TIME_OFFSET ( 1, 0, .AHEAD. ) ;
#54 =( NAMED_UNIT ( * ) SI_UNIT ( $, .STERADIAN. ) SOLID_ANGLE_UNIT ( ) );
#55 = EDGE_LOOP ( 'NONE', ( #84 ) ) ;
#56 = ADVANCED_BREP_SHAPE_REPRESENTATION ( '3407', ( #152, #169 ), #44 ) ;
#57 = AXIS2_PLACEMENT_3D ( 'NONE', #79, #7, #59 ) ;
#58 = PERSON_AND_ORGANIZATION ( #60, #141 ) ;
#59 = DIRECTION ( 'NONE',  ( 3.946921334674116176E-31, 1.000000000000000000, 1.130443199212941593E-16 ) ) ;
#60 = PERSON ( 'UNSPECIFIED', 'UNSPECIFIED', 'UNSPECIFIED', ('UNSPECIFIED'), ('UNSPECIFIED'), ('UNSPECIFIED') ) ;
#61 = LOCAL_TIME ( 13, 58, 48.00000000000000000, #19 ) ;
#62 = COORDINATED_UNIVERSAL_TIME_OFFSET ( 1, 0, .AHEAD. ) ;
#63 = DIRECTION ( 'NONE',  ( -3.491481338843133355E-15, 1.130443199212941593E-16, -1.000000000000000000 ) ) ;
#64 = DIRECTION ( 'NONE',  ( 3.491481338843133355E-15, -1.130443199212941593E-16, 1.000000000000000000 ) ) ;
#65 = FACE_OUTER_BOUND ( 'NONE', #67, .T. ) ;
#66 = ORIENTED_EDGE ( 'NONE', *, *, #40, .F. ) ;
#67 = EDGE_LOOP ( 'NONE', ( #100 ) ) ;
#68 = CC_DESIGN_SECURITY_CLASSIFICATION ( #149, ( #116 ) ) ;
#69 = CIRCLE ( 'NONE', #114, 2.500000000000000000 ) ;
#70 = ADVANCED_FACE ( 'NONE', ( #42, #74 ), #166, .T. ) ;
#71 = APPLICATION_CONTEXT ( 'configuration controlled 3d designs of mechanical parts and assemblies' ) ;
#72 = APPROVAL_ROLE ( '' ) ;
#73 = PRODUCT_DEFINITION ( 'UNKNOWN', '', #116, #153 ) ;
#74 = FACE_BOUND ( 'NONE', #125, .T. ) ;
#75 = SECURITY_CLASSIFICATION_LEVEL ( 'unclassified' ) ;
#76 = CYLINDRICAL_SURFACE ( 'NONE', #165, 10.00000000000000000 ) ;
#77 = CALENDAR_DATE ( 2021, 6, 12 ) ;
#78 = PERSON_AND_ORGANIZATION ( #60, #141 ) ;
#79 = CARTESIAN_POINT ( 'NONE',  ( -1.480095500502793741E-30, 2.500000000000000000, -4.239161997048531034E-16 ) ) ;
#80 = PERSON_AND_ORGANIZATION ( #60, #141 ) ;
#81 = MECHANICAL_CONTEXT ( 'NONE', #121, 'mechanical' ) ;
#82 = DIRECTION ( 'NONE',  ( 3.946921334674117052E-31, 1.000000000000000000, 1.130443199212941593E-16 ) ) ;
#83 = EDGE_LOOP ( 'NONE', ( #157 ) ) ;
#84 = ORIENTED_EDGE ( 'NONE', *, *, #40, .T. ) ;
#85 = LOCAL_TIME ( 13, 58, 48.00000000000000000, #53 ) ;
#86 = CALENDAR_DATE ( 2021, 6, 12 ) ;
#87 = PERSON_AND_ORGANIZATION ( #60, #141 ) ;
#88 = APPLICATION_PROTOCOL_DEFINITION ( 'international standard', 'config_control_design', 1994, #71 ) ;
#89 = AXIS2_PLACEMENT_3D ( 'NONE', #11, #64, #147 ) ;
#90 = CARTESIAN_POINT ( 'NONE',  ( 4.538925740496071784E-15, 10.00000000000000000, 1.299999999999999600 ) ) ;
#91 = EDGE_CURVE ( 'NONE', #150, #150, #95, .T. ) ;
#92 = DIRECTION ( 'NONE',  ( -3.491481338843133355E-15, 1.130443199212941593E-16, -1.000000000000000000 ) ) ;
#93 = APPROVAL_PERSON_ORGANIZATION ( #22, #29, #1 ) ;
#94 =( LENGTH_UNIT ( ) NAMED_UNIT ( * ) SI_UNIT ( .MILLI., .METRE. ) );
#95 = CIRCLE ( 'NONE', #50, 10.00000000000000000 ) ;
#96 = APPROVAL ( #32, 'UNSPECIFIED' ) ;
#97 = EDGE_LOOP ( 'NONE', ( #66 ) ) ;
#98 = FACE_OUTER_BOUND ( 'NONE', #83, .T. ) ;
#99 = PERSON_AND_ORGANIZATION ( #60, #141 ) ;
#100 = ORIENTED_EDGE ( 'NONE', *, *, #138, .T. ) ;
#101 = SHAPE_DEFINITION_REPRESENTATION ( #4, #56 ) ;
#102 = FACE_OUTER_BOUND ( 'NONE', #137, .T. ) ;
#103 = DATE_AND_TIME ( #86, #85 ) ;
#104 = DATE_AND_TIME ( #119, #61 ) ;
#105 = CC_DESIGN_APPROVAL ( #96, ( #116 ) ) ;
#106 = CARTESIAN_POINT ( 'NONE',  ( 0.0000000000000000000, 0.0000000000000000000, 0.0000000000000000000 ) ) ;
#107 = ADVANCED_FACE ( 'NONE', ( #98, #102 ), #76, .T. ) ;
#108 = CARTESIAN_POINT ( 'NONE',  ( 4.538925740496067840E-15, -1.469576158976822320E-16, 1.299999999999998490 ) ) ;
#109 = CARTESIAN_POINT ( 'NONE',  ( 4.538925740496071784E-15, 2.500000000000000444, 1.299999999999999600 ) ) ;
#110 = DIRECTION ( 'NONE',  ( 3.946921334674117052E-31, 1.000000000000000000, 1.130443199212941593E-16 ) ) ;
#111 = CARTESIAN_POINT ( 'NONE',  ( 4.538925740496070995E-15, -1.469576158976823306E-16, 1.299999999999999378 ) ) ;
#112 = AXIS2_PLACEMENT_3D ( 'NONE', #111, #41, #13 ) ;
#113 = ORIENTED_EDGE ( 'NONE', *, *, #91, .F. ) ;
#114 = AXIS2_PLACEMENT_3D ( 'NONE', #9, #37, #110 ) ;
#115 = APPROVAL_DATE_TIME ( #104, #35 ) ;
#116 = PRODUCT_DEFINITION_FORMATION_WITH_SPECIFIED_SOURCE ( 'ANY', '', #46, .NOT_KNOWN. ) ;
#117 = COORDINATED_UNIVERSAL_TIME_OFFSET ( 1, 0, .AHEAD. ) ;
#118 = ADVANCED_FACE ( 'NONE', ( #14, #164 ), #27, .T. ) ;
#119 = CALENDAR_DATE ( 2021, 6, 12 ) ;
#120 = APPROVAL_STATUS ( 'not_yet_approved' ) ;
#121 = APPLICATION_CONTEXT ( 'configuration controlled 3d designs of mechanical parts and assemblies' ) ;
#122 = LOCAL_TIME ( 13, 58, 48.00000000000000000, #62 ) ;
#123 = VERTEX_POINT ( 'NONE', #90 ) ;
#124 = VERTEX_POINT ( 'NONE', #109 ) ;
#125 = EDGE_LOOP ( 'NONE', ( #5 ) ) ;
#126 = ADVANCED_FACE ( 'NONE', ( #65, #134 ), #133, .F. ) ;
#127 = EDGE_CURVE ( 'NONE', #123, #123, #47, .T. ) ;
#128 = APPROVAL_PERSON_ORGANIZATION ( #99, #35, #72 ) ;
#129 = APPROVAL_ROLE ( '' ) ;
#130 = DIRECTION ( 'NONE',  ( 3.946921334674117052E-31, 1.000000000000000000, 1.130443199212941593E-16 ) ) ;
#131 = PERSON_AND_ORGANIZATION_ROLE ( 'design_supplier' ) ;
#132 = CC_DESIGN_PERSON_AND_ORGANIZATION_ASSIGNMENT ( #87, #167, ( #46 ) ) ;
#133 = CYLINDRICAL_SURFACE ( 'NONE', #145, 2.500000000000000444 ) ;
#134 = FACE_OUTER_BOUND ( 'NONE', #97, .T. ) ;
#135 = CLOSED_SHELL ( 'NONE', ( #70, #107, #118, #126 ) ) ;
#136 = DIRECTION ( 'NONE',  ( 3.851859888774471706E-31, 1.000000000000000000, 1.084202172485504434E-16 ) ) ;
#137 = EDGE_LOOP ( 'NONE', ( #113 ) ) ;
#138 = EDGE_CURVE ( 'NONE', #151, #151, #69, .T. ) ;
#139 = ORIENTED_EDGE ( 'NONE', *, *, #91, .T. ) ;
#140 = UNCERTAINTY_MEASURE_WITH_UNIT (LENGTH_MEASURE( 1.000000000000000082E-05 ), #94, 'distance_accuracy_value', 'NONE');
#141 = ORGANIZATION ( 'UNSPECIFIED', 'UNSPECIFIED', '' ) ;
#142 = CALENDAR_DATE ( 2021, 6, 12 ) ;
#143 = CC_DESIGN_PERSON_AND_ORGANIZATION_ASSIGNMENT ( #24, #155, ( #116 ) ) ;
#144 = PERSON_AND_ORGANIZATION_ROLE ( 'creator' ) ;
#145 = AXIS2_PLACEMENT_3D ( 'NONE', #148, #162, #82 ) ;
#146 = DATE_AND_TIME ( #77, #25 ) ;
#147 = DIRECTION ( 'NONE',  ( -3.946921334674116176E-31, -1.000000000000000000, -1.130443199212941593E-16 ) ) ;
#148 = CARTESIAN_POINT ( 'NONE',  ( 0.0000000000000000000, 0.0000000000000000000, 0.0000000000000000000 ) ) ;
#149 = SECURITY_CLASSIFICATION ( '', '', #75 ) ;
#150 = VERTEX_POINT ( 'NONE', #3 ) ;
#151 = VERTEX_POINT ( 'NONE', #28 ) ;
#152 = MANIFOLD_SOLID_BREP ( 'Corps-Déplacer/Copier1', #135 ) ;
#153 = DESIGN_CONTEXT ( 'detailed design', #71, 'design' ) ;
#154 = CC_DESIGN_PERSON_AND_ORGANIZATION_ASSIGNMENT ( #80, #168, ( #149 ) ) ;
#155 = PERSON_AND_ORGANIZATION_ROLE ( 'creator' ) ;
#156 = COORDINATED_UNIVERSAL_TIME_OFFSET ( 1, 0, .AHEAD. ) ;
#157 = ORIENTED_EDGE ( 'NONE', *, *, #127, .T. ) ;
#158 = AXIS2_PLACEMENT_3D ( 'NONE', #108, #92, #136 ) ;
#159 = DATE_TIME_ROLE ( 'classification_date' ) ;
#160 = DIRECTION ( 'NONE',  ( -3.491481338843133355E-15, 1.130443199212941593E-16, -1.000000000000000000 ) ) ;
#161 = APPROVAL_STATUS ( 'not_yet_approved' ) ;
#162 = DIRECTION ( 'NONE',  ( -3.491481338843133355E-15, 1.130443199212941593E-16, -1.000000000000000000 ) ) ;
#163 = APPROVAL_PERSON_ORGANIZATION ( #78, #96, #129 ) ;
#164 = FACE_OUTER_BOUND ( 'NONE', #17, .T. ) ;
#165 = AXIS2_PLACEMENT_3D ( 'NONE', #6, #160, #31 ) ;
#166 = PLANE ( 'NONE',  #57 ) ;
#167 = PERSON_AND_ORGANIZATION_ROLE ( 'design_owner' ) ;
#168 = PERSON_AND_ORGANIZATION_ROLE ( 'classification_officer' ) ;
#169 = AXIS2_PLACEMENT_3D ( 'NONE', #106, #36, #34 ) ;
ENDSEC;
END-ISO-10303-21;
