ISO-10303-21;
HEADER;
FILE_DESCRIPTION (( 'STEP AP203' ),
    '1' );
FILE_NAME ('34062.step',
    '2021-10-06T11:26:09',
    ( '' ),
    ( '' ),
    'SwSTEP 2.0',
    'SolidWorks 2019',
    '' );
FILE_SCHEMA (( 'CONFIG_CONTROL_DESIGN' ));
ENDSEC;

DATA;
#1 = VERTEX_POINT ( 'NONE', #122 ) ;
#2 = AXIS2_PLACEMENT_3D ( 'NONE', #15, #143, #180 ) ;
#3 = VERTEX_POINT ( 'NONE', #151 ) ;
#4 = EDGE_CURVE ( 'NONE', #203, #203, #104, .T. ) ;
#5 = AXIS2_PLACEMENT_3D ( 'NONE', #101, #200, #116 ) ;
#6 = PERSON_AND_ORGANIZATION ( #22, #135 ) ;
#7 = APPROVAL_DATE_TIME ( #138, #32 ) ;
#8 = CC_DESIGN_DATE_AND_TIME_ASSIGNMENT ( #50, #68, ( #134 ) ) ;
#9 = ORIENTED_EDGE ( 'NONE', *, *, #4, .T. ) ;
#10 = AXIS2_PLACEMENT_3D ( 'NONE', #78, #129, #49 ) ;
#11 = CARTESIAN_POINT ( 'NONE',  ( 0.0000000000000000000, 0.0000000000000000000, 0.0000000000000000000 ) ) ;
#12 = DIRECTION ( 'NONE',  ( -3.491481338843133355E-15, 1.224646799147353207E-16, -1.000000000000000000 ) ) ;
#13 = FACE_BOUND ( 'NONE', #97, .T. ) ;
#14 = ORIENTED_EDGE ( 'NONE', *, *, #118, .F. ) ;
#15 = CARTESIAN_POINT ( 'NONE',  ( 7.681258945454893382E-14, 1.499759782661852408E-32, 22.00000000000000000 ) ) ;
#16 = APPROVAL_ROLE ( '' ) ;
#17 = SECURITY_CLASSIFICATION ( '', '', #23 ) ;
#18 = PERSON_AND_ORGANIZATION ( #22, #135 ) ;
#19 = CALENDAR_DATE ( 2021, 6, 10 ) ;
#20 = AXIS2_PLACEMENT_3D ( 'NONE', #31, #84, #64 ) ;
#21 = DATE_TIME_ROLE ( 'classification_date' ) ;
#22 = PERSON ( 'UNSPECIFIED', 'UNSPECIFIED', 'UNSPECIFIED', ('UNSPECIFIED'), ('UNSPECIFIED'), ('UNSPECIFIED') ) ;
#23 = SECURITY_CLASSIFICATION_LEVEL ( 'unclassified' ) ;
#24 = PRODUCT_DEFINITION_SHAPE ( 'NONE', 'NONE',  #134 ) ;
#25 = CALENDAR_DATE ( 2021, 6, 10 ) ;
#26 = ADVANCED_FACE ( 'NONE', ( #166, #13 ), #113, .T. ) ;
#27 = LOCAL_TIME ( 13, 26, 9.000000000000000000, #107 ) ;
#28 = FACE_OUTER_BOUND ( 'NONE', #144, .T. ) ;
#29 = CARTESIAN_POINT ( 'NONE',  ( 0.0000000000000000000, 0.0000000000000000000, 0.0000000000000000000 ) ) ;
#30 = PLANE ( 'NONE',  #2 ) ;
#31 = CARTESIAN_POINT ( 'NONE',  ( 7.681258945454893382E-14, -2.694222958124176809E-15, 22.00000000000000000 ) ) ;
#32 = APPROVAL ( #163, 'UNSPECIFIED' ) ;
#33 = APPROVAL_DATE_TIME ( #67, #176 ) ;
#34 =( GEOMETRIC_REPRESENTATION_CONTEXT ( 3 ) GLOBAL_UNCERTAINTY_ASSIGNED_CONTEXT ( ( #139 ) ) GLOBAL_UNIT_ASSIGNED_CONTEXT ( ( #175, #51, #189 ) ) REPRESENTATION_CONTEXT ( 'NONE', 'WORKASPACE' ) );
#35 = CARTESIAN_POINT ( 'NONE',  ( 0.0000000000000000000, 0.0000000000000000000, 0.0000000000000000000 ) ) ;
#36 = LOCAL_TIME ( 13, 26, 9.000000000000000000, #71 ) ;
#37 = APPLICATION_PROTOCOL_DEFINITION ( 'international standard', 'config_control_design', 1994, #41 ) ;
#38 = CIRCLE ( 'NONE', #10, 1.500000000000001998 ) ;
#39 = PERSON_AND_ORGANIZATION ( #22, #135 ) ;
#40 = CLOSED_SHELL ( 'NONE', ( #197, #92, #26, #159 ) ) ;
#41 = APPLICATION_CONTEXT ( 'configuration controlled 3d designs of mechanical parts and assemblies' ) ;
#42 = DIRECTION ( 'NONE',  ( -3.491481338843133355E-15, 1.224646799147353207E-16, -1.000000000000000000 ) ) ;
#43 = ADVANCED_FACE ( 'NONE', ( #185 ), #121, .T. ) ;
#44 = AXIS2_PLACEMENT_3D ( 'NONE', #11, #42, #196 ) ;
#45 = PLANE ( 'NONE',  #86 ) ;
#46 = FACE_OUTER_BOUND ( 'NONE', #146, .T. ) ;
#47 = CIRCLE ( 'NONE', #5, 2.000000000000001776 ) ;
#48 = EDGE_CURVE ( 'NONE', #70, #70, #177, .T. ) ;
#49 = DIRECTION ( 'NONE',  ( 0.0000000000000000000, 1.000000000000000000, 0.0000000000000000000 ) ) ;
#50 = DATE_AND_TIME ( #19, #27 ) ;
#51 =( NAMED_UNIT ( * ) PLANE_ANGLE_UNIT ( ) SI_UNIT ( $, .RADIAN. ) );
#52 = PERSON_AND_ORGANIZATION_ROLE ( 'creator' ) ;
#53 = ADVANCED_BREP_SHAPE_REPRESENTATION ( '34062', ( #69, #140, #127 ), #34 ) ;
#54 = CARTESIAN_POINT ( 'NONE',  ( 1.902857329669507616E-13, 1.999999999999995337, 54.50000000000000000 ) ) ;
#55 = LOCAL_TIME ( 13, 26, 9.000000000000000000, #57 ) ;
#56 = PERSON_AND_ORGANIZATION_ROLE ( 'design_supplier' ) ;
#57 = COORDINATED_UNIVERSAL_TIME_OFFSET ( 1, 0, .AHEAD. ) ;
#58 = EDGE_LOOP ( 'NONE', ( #9 ) ) ;
#59 = PERSON_AND_ORGANIZATION_ROLE ( 'classification_officer' ) ;
#60 = DIRECTION ( 'NONE',  ( 4.275831445896958607E-31, 1.000000000000000000, 1.224646799147353207E-16 ) ) ;
#61 = EDGE_LOOP ( 'NONE', ( #65 ) ) ;
#62 = CC_DESIGN_APPROVAL ( #176, ( #178 ) ) ;
#63 = DIRECTION ( 'NONE',  ( -3.491481338843133355E-15, 1.224646799147353207E-16, -1.000000000000000000 ) ) ;
#64 = DIRECTION ( 'NONE',  ( 0.0000000000000000000, 1.000000000000000000, 0.0000000000000000000 ) ) ;
#65 = ORIENTED_EDGE ( 'NONE', *, *, #118, .T. ) ;
#66 = LOCAL_TIME ( 13, 26, 9.000000000000000000, #154 ) ;
#67 = DATE_AND_TIME ( #201, #36 ) ;
#68 = DATE_TIME_ROLE ( 'creation_date' ) ;
#69 = MANIFOLD_SOLID_BREP ( 'Corps-Déplacer/Copier1[1]', #40 ) ;
#70 = VERTEX_POINT ( 'NONE', #105 ) ;
#71 = COORDINATED_UNIVERSAL_TIME_OFFSET ( 1, 0, .AHEAD. ) ;
#72 = CC_DESIGN_DATE_AND_TIME_ASSIGNMENT ( #73, #21, ( #17 ) ) ;
#73 = DATE_AND_TIME ( #75, #66 ) ;
#74 = CC_DESIGN_PERSON_AND_ORGANIZATION_ASSIGNMENT ( #103, #52, ( #134 ) ) ;
#75 = CALENDAR_DATE ( 2021, 6, 10 ) ;
#76 = AXIS2_PLACEMENT_3D ( 'NONE', #172, #168, #194 ) ;
#77 = ORIENTED_EDGE ( 'NONE', *, *, #80, .T. ) ;
#78 = CARTESIAN_POINT ( 'NONE',  ( 1.920314736363723472E-13, -6.735557395310442615E-15, 55.00000000000000000 ) ) ;
#79 = ORIENTED_EDGE ( 'NONE', *, *, #80, .F. ) ;
#80 = EDGE_CURVE ( 'NONE', #3, #3, #38, .T. ) ;
#81 = DIRECTION ( 'NONE',  ( 3.491481338843133355E-15, -1.224646799147353207E-16, 1.000000000000000000 ) ) ;
#82 = EDGE_LOOP ( 'NONE', ( #100 ) ) ;
#83 = DIRECTION ( 'NONE',  ( 4.275831445896958607E-31, 1.000000000000000000, 1.224646799147353207E-16 ) ) ;
#84 = DIRECTION ( 'NONE',  ( -3.491481338843133355E-15, 1.224646799147353207E-16, -1.000000000000000000 ) ) ;
#85 = DIRECTION ( 'NONE',  ( -4.275831445896958607E-31, -1.000000000000000000, -1.224646799147353207E-16 ) ) ;
#86 = AXIS2_PLACEMENT_3D ( 'NONE', #195, #182, #85 ) ;
#87 = PERSON_AND_ORGANIZATION ( #22, #135 ) ;
#88 = PERSON_AND_ORGANIZATION ( #22, #135 ) ;
#89 = COORDINATED_UNIVERSAL_TIME_OFFSET ( 1, 0, .AHEAD. ) ;
#90 = APPROVAL_PERSON_ORGANIZATION ( #18, #153, #16 ) ;
#91 = APPROVAL_ROLE ( '' ) ;
#92 = ADVANCED_FACE ( 'NONE', ( #125, #128 ), #145, .T. ) ;
#93 = CLOSED_SHELL ( 'NONE', ( #43, #111, #108 ) ) ;
#94 = APPROVAL_ROLE ( '' ) ;
#95 = AXIS2_PLACEMENT_3D ( 'NONE', #158, #12, #83 ) ;
#96 = PLANE ( 'NONE',  #95 ) ;
#97 = EDGE_LOOP ( 'NONE', ( #77 ) ) ;
#98 = DIRECTION ( 'NONE',  ( 0.0000000000000000000, 1.000000000000000000, 0.0000000000000000000 ) ) ;
#99 = CC_DESIGN_PERSON_AND_ORGANIZATION_ASSIGNMENT ( #87, #114, ( #178 ) ) ;
#100 = ORIENTED_EDGE ( 'NONE', *, *, #4, .F. ) ;
#101 = CARTESIAN_POINT ( 'NONE',  ( 1.902857329669507616E-13, -6.674325055353075041E-15, 54.50000000000000000 ) ) ;
#102 = DIRECTION ( 'NONE',  ( -3.491481338843133355E-15, 1.224646799147353207E-16, -1.000000000000000000 ) ) ;
#103 = PERSON_AND_ORGANIZATION ( #22, #135 ) ;
#104 = CIRCLE ( 'NONE', #126, 1.999999999999995337 ) ;
#105 = CARTESIAN_POINT ( 'NONE',  ( 7.681258945454893382E-14, 1.999999999999995337, 22.00000000000000000 ) ) ;
#106 = CARTESIAN_POINT ( 'NONE',  ( 3.256208973215676997E-15, 1.999999999999995337, 0.9326153163100073806 ) ) ;
#107 = COORDINATED_UNIVERSAL_TIME_OFFSET ( 1, 0, .AHEAD. ) ;
#108 = ADVANCED_FACE ( 'NONE', ( #46 ), #30, .T. ) ;
#109 = APPLICATION_PROTOCOL_DEFINITION ( 'international standard', 'config_control_design', 1994, #110 ) ;
#110 = APPLICATION_CONTEXT ( 'configuration controlled 3d designs of mechanical parts and assemblies' ) ;
#111 = ADVANCED_FACE ( 'NONE', ( #183, #160 ), #120, .T. ) ;
#112 = SHAPE_DEFINITION_REPRESENTATION ( #24, #53 ) ;
#113 = CONICAL_SURFACE ( 'NONE', #76, 1.500000000000001998, 0.7853981633974476129 ) ;
#114 = PERSON_AND_ORGANIZATION_ROLE ( 'creator' ) ;
#115 = CC_DESIGN_PERSON_AND_ORGANIZATION_ASSIGNMENT ( #6, #56, ( #178 ) ) ;
#116 = DIRECTION ( 'NONE',  ( 0.0000000000000000000, 1.000000000000000000, 0.0000000000000000000 ) ) ;
#117 = APPROVAL_PERSON_ORGANIZATION ( #173, #176, #91 ) ;
#118 = EDGE_CURVE ( 'NONE', #1, #1, #187, .T. ) ;
#119 = ORIENTED_EDGE ( 'NONE', *, *, #48, .F. ) ;
#120 = CYLINDRICAL_SURFACE ( 'NONE', #44, 1.999999999999996669 ) ;
#121 = CONICAL_SURFACE ( 'NONE', #181, 1.999999999999995337, 1.134464013796309123 ) ;
#122 = CARTESIAN_POINT ( 'NONE',  ( 7.681258945454893382E-14, 1.999999999999995337, 22.00000000000000000 ) ) ;
#123 = CC_DESIGN_PERSON_AND_ORGANIZATION_ASSIGNMENT ( #190, #59, ( #17 ) ) ;
#124 = EDGE_LOOP ( 'NONE', ( #179 ) ) ;
#125 = FACE_OUTER_BOUND ( 'NONE', #147, .T. ) ;
#126 = AXIS2_PLACEMENT_3D ( 'NONE', #186, #199, #157 ) ;
#127 = AXIS2_PLACEMENT_3D ( 'NONE', #35, #174, #188 ) ;
#128 = FACE_OUTER_BOUND ( 'NONE', #124, .T. ) ;
#129 = DIRECTION ( 'NONE',  ( -3.491481338843133355E-15, 1.224646799147353207E-16, -1.000000000000000000 ) ) ;
#130 = EDGE_LOOP ( 'NONE', ( #164 ) ) ;
#131 = DIRECTION ( 'NONE',  ( -3.851859888774480902E-31, -1.000000000000000000, -1.084202172485507022E-16 ) ) ;
#132 = APPROVAL_STATUS ( 'not_yet_approved' ) ;
#133 = VERTEX_POINT ( 'NONE', #54 ) ;
#134 = PRODUCT_DEFINITION ( 'UNKNOWN', '', #178, #152 ) ;
#135 = ORGANIZATION ( 'UNSPECIFIED', 'UNSPECIFIED', '' ) ;
#136 = CALENDAR_DATE ( 2021, 6, 10 ) ;
#137 = CC_DESIGN_SECURITY_CLASSIFICATION ( #17, ( #178 ) ) ;
#138 = DATE_AND_TIME ( #25, #55 ) ;
#139 = UNCERTAINTY_MEASURE_WITH_UNIT (LENGTH_MEASURE( 1.000000000000000082E-05 ), #175, 'distance_accuracy_value', 'NONE');
#140 = MANIFOLD_SOLID_BREP ( 'Corps-Déplacer/Copier1[2]', #93 ) ;
#141 = EDGE_LOOP ( 'NONE', ( #167 ) ) ;
#142 = AXIS2_PLACEMENT_3D ( 'NONE', #170, #63, #98 ) ;
#143 = DIRECTION ( 'NONE',  ( 3.491481338843133355E-15, -1.224646799147353207E-16, 1.000000000000000000 ) ) ;
#144 = EDGE_LOOP ( 'NONE', ( #79 ) ) ;
#145 = CYLINDRICAL_SURFACE ( 'NONE', #192, 2.000000000000000000 ) ;
#146 = EDGE_LOOP ( 'NONE', ( #119 ) ) ;
#147 = EDGE_LOOP ( 'NONE', ( #14 ) ) ;
#148 = APPROVAL_DATE_TIME ( #202, #153 ) ;
#149 = APPROVAL_PERSON_ORGANIZATION ( #39, #32, #94 ) ;
#150 = APPROVAL_STATUS ( 'not_yet_approved' ) ;
#151 = CARTESIAN_POINT ( 'NONE',  ( 1.920314736363723472E-13, 1.499999999999995337, 55.00000000000000000 ) ) ;
#152 = DESIGN_CONTEXT ( 'detailed design', #110, 'design' ) ;
#153 = APPROVAL ( #150, 'UNSPECIFIED' ) ;
#154 = COORDINATED_UNIVERSAL_TIME_OFFSET ( 1, 0, .AHEAD. ) ;
#155 = EDGE_CURVE ( 'NONE', #133, #133, #47, .T. ) ;
#156 = FACE_OUTER_BOUND ( 'NONE', #61, .T. ) ;
#157 = DIRECTION ( 'NONE',  ( 3.851859888774480902E-31, 1.000000000000000000, 1.084202172485507022E-16 ) ) ;
#158 = CARTESIAN_POINT ( 'NONE',  ( 1.920314736363723472E-13, 1.124819836996384721E-32, 55.00000000000000000 ) ) ;
#159 = ADVANCED_FACE ( 'NONE', ( #28 ), #96, .F. ) ;
#160 = FACE_OUTER_BOUND ( 'NONE', #130, .T. ) ;
#161 = MECHANICAL_CONTEXT ( 'NONE', #41, 'mechanical' ) ;
#162 = PERSON_AND_ORGANIZATION_ROLE ( 'design_owner' ) ;
#163 = APPROVAL_STATUS ( 'not_yet_approved' ) ;
#164 = ORIENTED_EDGE ( 'NONE', *, *, #48, .T. ) ;
#165 = CC_DESIGN_APPROVAL ( #32, ( #17 ) ) ;
#166 = FACE_OUTER_BOUND ( 'NONE', #141, .T. ) ;
#167 = ORIENTED_EDGE ( 'NONE', *, *, #155, .F. ) ;
#168 = DIRECTION ( 'NONE',  ( -3.491481338843133355E-15, 1.224646799147353207E-16, -1.000000000000000000 ) ) ;
#169 = CC_DESIGN_PERSON_AND_ORGANIZATION_ASSIGNMENT ( #88, #162, ( #193 ) ) ;
#170 = CARTESIAN_POINT ( 'NONE',  ( 7.681258945454893382E-14, -2.694222958124176809E-15, 22.00000000000000000 ) ) ;
#171 = CC_DESIGN_APPROVAL ( #153, ( #134 ) ) ;
#172 = CARTESIAN_POINT ( 'NONE',  ( 1.920314736363723472E-13, -6.735557395310442615E-15, 55.00000000000000000 ) ) ;
#173 = PERSON_AND_ORGANIZATION ( #22, #135 ) ;
#174 = DIRECTION ( 'NONE',  ( 0.0000000000000000000, 0.0000000000000000000, 1.000000000000000000 ) ) ;
#175 =( LENGTH_UNIT ( ) NAMED_UNIT ( * ) SI_UNIT ( .MILLI., .METRE. ) );
#176 = APPROVAL ( #132, 'UNSPECIFIED' ) ;
#177 = CIRCLE ( 'NONE', #20, 1.999999999999997780 ) ;
#178 = PRODUCT_DEFINITION_FORMATION_WITH_SPECIFIED_SOURCE ( 'ANY', '', #193, .NOT_KNOWN. ) ;
#179 = ORIENTED_EDGE ( 'NONE', *, *, #155, .T. ) ;
#180 = DIRECTION ( 'NONE',  ( -4.275831445896958607E-31, -1.000000000000000000, -1.224646799147353207E-16 ) ) ;
#181 = AXIS2_PLACEMENT_3D ( 'NONE', #198, #81, #131 ) ;
#182 = DIRECTION ( 'NONE',  ( 3.491481338843133355E-15, -1.224646799147353207E-16, 1.000000000000000000 ) ) ;
#183 = FACE_OUTER_BOUND ( 'NONE', #82, .T. ) ;
#184 = PRODUCT_RELATED_PRODUCT_CATEGORY ( 'detail', '', ( #193 ) ) ;
#185 = FACE_OUTER_BOUND ( 'NONE', #58, .T. ) ;
#186 = CARTESIAN_POINT ( 'NONE',  ( 3.256208973215676208E-15, -1.142124361954846738E-16, 0.9326153163100071586 ) ) ;
#187 = CIRCLE ( 'NONE', #142, 1.999999999999997780 ) ;
#188 = DIRECTION ( 'NONE',  ( 1.000000000000000000, 0.0000000000000000000, 0.0000000000000000000 ) ) ;
#189 =( NAMED_UNIT ( * ) SI_UNIT ( $, .STERADIAN. ) SOLID_ANGLE_UNIT ( ) );
#190 = PERSON_AND_ORGANIZATION ( #22, #135 ) ;
#191 = LOCAL_TIME ( 13, 26, 9.000000000000000000, #89 ) ;
#192 = AXIS2_PLACEMENT_3D ( 'NONE', #29, #102, #60 ) ;
#193 = PRODUCT ( '34062', '34062', '', ( #161 ) ) ;
#194 = DIRECTION ( 'NONE',  ( 0.0000000000000000000, 1.000000000000000000, 0.0000000000000000000 ) ) ;
#195 = CARTESIAN_POINT ( 'NONE',  ( 7.681258945454893382E-14, 1.499759782661852408E-32, 22.00000000000000000 ) ) ;
#196 = DIRECTION ( 'NONE',  ( 4.275831445896958607E-31, 1.000000000000000000, 1.224646799147353207E-16 ) ) ;
#197 = ADVANCED_FACE ( 'NONE', ( #156 ), #45, .F. ) ;
#198 = CARTESIAN_POINT ( 'NONE',  ( 3.256208973215676208E-15, -1.142124361954846738E-16, 0.9326153163100071586 ) ) ;
#199 = DIRECTION ( 'NONE',  ( -3.491481338843133355E-15, 1.224646799147353207E-16, -1.000000000000000000 ) ) ;
#200 = DIRECTION ( 'NONE',  ( -3.491481338843133355E-15, 1.224646799147353207E-16, -1.000000000000000000 ) ) ;
#201 = CALENDAR_DATE ( 2021, 6, 10 ) ;
#202 = DATE_AND_TIME ( #136, #191 ) ;
#203 = VERTEX_POINT ( 'NONE', #106 ) ;
ENDSEC;
END-ISO-10303-21;
