ISO-10303-21;
HEADER;
FILE_DESCRIPTION (( 'STEP AP203' ),
    '1' );
FILE_NAME ('339066.step',
    '2021-11-18T10:46:20',
    ( '' ),
    ( '' ),
    'SwSTEP 2.0',
    'SolidWorks 2019',
    '' );
FILE_SCHEMA (( 'CONFIG_CONTROL_DESIGN' ));
ENDSEC;

DATA;
#1 = FACE_OUTER_BOUND ( 'NONE', #66, .T. ) ;
#2 = CARTESIAN_POINT ( 'NONE',  ( 1.326762908760390423E-13, -4.653657836759942730E-15, 38.00000000000000000 ) ) ;
#3 = CARTESIAN_POINT ( 'NONE',  ( 3.631140592396858185E-13, 1.759529233115088444E-30, 103.9999999999999858 ) ) ;
#4 = ADVANCED_FACE ( 'NONE', ( #221, #23 ), #20, .T. ) ;
#5 = DIRECTION ( 'NONE',  ( 0.0000000000000000000, 1.000000000000000000, 0.0000000000000000000 ) ) ;
#6 = CC_DESIGN_SECURITY_CLASSIFICATION ( #242, ( #36 ) ) ;
#7 = DIRECTION ( 'NONE',  ( -1.000000000000000000, 0.0000000000000000000, 3.469446951953617739E-15 ) ) ;
#8 = DIRECTION ( 'NONE',  ( 1.000000000000000000, 0.0000000000000000000, -3.491481338843133355E-15 ) ) ;
#9 = ADVANCED_BREP_SHAPE_REPRESENTATION ( '339066', ( #113, #26, #75 ), #212 ) ;
#10 = VERTEX_POINT ( 'NONE', #254 ) ;
#11 = APPROVAL ( #150, 'UNSPECIFIED' ) ;
#12 = PERSON_AND_ORGANIZATION ( #127, #152 ) ;
#13 = PERSON_AND_ORGANIZATION ( #127, #152 ) ;
#14 = VERTEX_POINT ( 'NONE', #82 ) ;
#15 = APPROVAL_DATE_TIME ( #209, #167 ) ;
#16 = AXIS2_PLACEMENT_3D ( 'NONE', #252, #191, #8 ) ;
#17 = EDGE_LOOP ( 'NONE', ( #262 ) ) ;
#18 = DIRECTION ( 'NONE',  ( 4.275831445896958607E-31, 1.000000000000000000, 1.224646799147353454E-16 ) ) ;
#19 = PLANE ( 'NONE',  #173 ) ;
#20 = CYLINDRICAL_SURFACE ( 'NONE', #64, 10.00000000000000000 ) ;
#21 = FACE_OUTER_BOUND ( 'NONE', #137, .T. ) ;
#22 = EDGE_CURVE ( 'NONE', #10, #10, #136, .T. ) ;
#23 = FACE_OUTER_BOUND ( 'NONE', #177, .T. ) ;
#24 = DIRECTION ( 'NONE',  ( 3.491481338843133355E-15, -0.0000000000000000000, 1.000000000000000000 ) ) ;
#25 = AXIS2_PLACEMENT_3D ( 'NONE', #256, #187, #80 ) ;
#26 = MANIFOLD_SOLID_BREP ( 'Corps-Déplacer/Copier1[2]', #35 ) ;
#27 = CALENDAR_DATE ( 2021, 18, 11 ) ;
#28 = FACE_OUTER_BOUND ( 'NONE', #182, .T. ) ;
#29 = COORDINATED_UNIVERSAL_TIME_OFFSET ( 1, 0, .AHEAD. ) ;
#30 = DATE_AND_TIME ( #261, #115 ) ;
#31 = CALENDAR_DATE ( 2021, 18, 11 ) ;
#32 = ORIENTED_EDGE ( 'NONE', *, *, #91, .T. ) ;
#33 = EDGE_LOOP ( 'NONE', ( #47 ) ) ;
#34 = ADVANCED_FACE ( 'NONE', ( #128, #201 ), #19, .T. ) ;
#35 = CLOSED_SHELL ( 'NONE', ( #4, #81, #153, #230 ) ) ;
#36 = PRODUCT_DEFINITION_FORMATION_WITH_SPECIFIED_SOURCE ( 'ANY', '', #217, .NOT_KNOWN. ) ;
#37 = CARTESIAN_POINT ( 'NONE',  ( 0.0000000000000000000, 0.0000000000000000000, 0.0000000000000000000 ) ) ;
#38 = AXIS2_PLACEMENT_3D ( 'NONE', #92, #122, #41 ) ;
#39 = FACE_OUTER_BOUND ( 'NONE', #199, .T. ) ;
#40 = DIRECTION ( 'NONE',  ( -3.491481338843133355E-15, 1.224646799147353454E-16, -1.000000000000000000 ) ) ;
#41 = DIRECTION ( 'NONE',  ( 1.000000000000000000, 0.0000000000000000000, -3.652049423109067235E-15 ) ) ;
#42 = EDGE_LOOP ( 'NONE', ( #51 ) ) ;
#43 = PERSON_AND_ORGANIZATION ( #127, #152 ) ;
#44 = FACE_OUTER_BOUND ( 'NONE', #215, .T. ) ;
#45 = CC_DESIGN_APPROVAL ( #167, ( #237 ) ) ;
#46 = ORIENTED_EDGE ( 'NONE', *, *, #211, .F. ) ;
#47 = ORIENTED_EDGE ( 'NONE', *, *, #22, .T. ) ;
#48 = ADVANCED_FACE ( 'NONE', ( #249 ), #76, .F. ) ;
#49 = AXIS2_PLACEMENT_3D ( 'NONE', #3, #72, #204 ) ;
#50 = VERTEX_POINT ( 'NONE', #102 ) ;
#51 = ORIENTED_EDGE ( 'NONE', *, *, #211, .T. ) ;
#52 = CARTESIAN_POINT ( 'NONE',  ( 1.396592535537253027E-14, 0.0000000000000000000, 3.999999999999999112 ) ) ;
#53 = CC_DESIGN_PERSON_AND_ORGANIZATION_ASSIGNMENT ( #175, #172, ( #242 ) ) ;
#54 = DIRECTION ( 'NONE',  ( 1.000000000000000000, 0.0000000000000000000, -3.469446951953614978E-15 ) ) ;
#55 = DIRECTION ( 'NONE',  ( 3.491481338843133355E-15, -1.224646799147353454E-16, 1.000000000000000000 ) ) ;
#56 = DESIGN_CONTEXT ( 'detailed design', #178, 'design' ) ;
#57 = APPLICATION_CONTEXT ( 'configuration controlled 3d designs of mechanical parts and assemblies' ) ;
#58 = EDGE_LOOP ( 'NONE', ( #89 ) ) ;
#59 = EDGE_LOOP ( 'NONE', ( #243 ) ) ;
#60 = APPROVAL_ROLE ( '' ) ;
#61 = PLANE ( 'NONE',  #158 ) ;
#62 = PERSON_AND_ORGANIZATION ( #127, #152 ) ;
#63 = DIRECTION ( 'NONE',  ( 1.000000000000000000, 0.0000000000000000000, -3.652049423109067235E-15 ) ) ;
#64 = AXIS2_PLACEMENT_3D ( 'NONE', #37, #125, #18 ) ;
#65 = LOCAL_TIME ( 11, 46, 20.00000000000000000, #29 ) ;
#66 = EDGE_LOOP ( 'NONE', ( #117 ) ) ;
#67 = AXIS2_PLACEMENT_3D ( 'NONE', #123, #186, #7 ) ;
#68 = APPROVAL_PERSON_ORGANIZATION ( #12, #253, #60 ) ;
#69 = PLANE ( 'NONE',  #205 ) ;
#70 = CARTESIAN_POINT ( 'NONE',  ( 6.000000000000000888, 0.0000000000000000000, -2.094888803305880329E-14 ) ) ;
#71 = CARTESIAN_POINT ( 'NONE',  ( 3.561310965619995265E-13, -1.249139735130300247E-14, 101.9999999999999858 ) ) ;
#72 = DIRECTION ( 'NONE',  ( -3.491481338843133355E-15, 1.224646799147353454E-16, -1.000000000000000000 ) ) ;
#73 = PERSON_AND_ORGANIZATION_ROLE ( 'creator' ) ;
#74 = AXIS2_PLACEMENT_3D ( 'NONE', #2, #162, #98 ) ;
#75 = AXIS2_PLACEMENT_3D ( 'NONE', #171, #87, #233 ) ;
#76 = PLANE ( 'NONE',  #223 ) ;
#77 = FACE_OUTER_BOUND ( 'NONE', #42, .T. ) ;
#78 = EDGE_CURVE ( 'NONE', #213, #213, #206, .T. ) ;
#79 = AXIS2_PLACEMENT_3D ( 'NONE', #143, #226, #95 ) ;
#80 = DIRECTION ( 'NONE',  ( 0.0000000000000000000, 1.000000000000000000, 0.0000000000000000000 ) ) ;
#81 = ADVANCED_FACE ( 'NONE', ( #1 ), #69, .T. ) ;
#82 = CARTESIAN_POINT ( 'NONE',  ( 3.561310965619995265E-13, 9.999999999999968026, 101.9999999999999858 ) ) ;
#83 = DATE_AND_TIME ( #31, #65 ) ;
#84 = PERSON_AND_ORGANIZATION ( #127, #152 ) ;
#85 = CIRCLE ( 'NONE', #16, 6.000000000000000888 ) ;
#86 = TOROIDAL_SURFACE ( 'NONE', #103, 6.000000000000000000, 3.999999999999999112 ) ;
#87 = DIRECTION ( 'NONE',  ( 0.0000000000000000000, 0.0000000000000000000, 1.000000000000000000 ) ) ;
#88 = COORDINATED_UNIVERSAL_TIME_OFFSET ( 1, 0, .AHEAD. ) ;
#89 = ORIENTED_EDGE ( 'NONE', *, *, #22, .F. ) ;
#90 = PRODUCT_DEFINITION_SHAPE ( 'NONE', 'NONE',  #237 ) ;
#91 = EDGE_CURVE ( 'NONE', #195, #195, #120, .T. ) ;
#92 = CARTESIAN_POINT ( 'NONE',  ( 1.745740669421566678E-13, 0.0000000000000000000, 50.00000000000000000 ) ) ;
#93 = DIRECTION ( 'NONE',  ( 3.491481338843133355E-15, -1.224646799147353454E-16, 1.000000000000000000 ) ) ;
#94 = UNCERTAINTY_MEASURE_WITH_UNIT (LENGTH_MEASURE( 1.000000000000000082E-05 ), #241, 'distance_accuracy_value', 'NONE');
#95 = DIRECTION ( 'NONE',  ( 4.275831445896960358E-31, 1.000000000000000000, 1.224646799147353454E-16 ) ) ;
#96 = FACE_BOUND ( 'NONE', #198, .T. ) ;
#97 = ADVANCED_FACE ( 'NONE', ( #165, #39 ), #247, .T. ) ;
#98 = DIRECTION ( 'NONE',  ( 0.0000000000000000000, 1.000000000000000000, 0.0000000000000000000 ) ) ;
#99 = CC_DESIGN_PERSON_AND_ORGANIZATION_ASSIGNMENT ( #163, #250, ( #36 ) ) ;
#100 = VERTEX_POINT ( 'NONE', #70 ) ;
#101 = PERSON_AND_ORGANIZATION_ROLE ( 'design_owner' ) ;
#102 = CARTESIAN_POINT ( 'NONE',  ( 9.500000000000131450, 0.0000000000000000000, 37.99999999999996447 ) ) ;
#103 = AXIS2_PLACEMENT_3D ( 'NONE', #52, #138, #161 ) ;
#104 = CARTESIAN_POINT ( 'NONE',  ( -2.137915722948479478E-30, 7.498798913309291323E-32, -6.123233995736767268E-16 ) ) ;
#105 = DATE_AND_TIME ( #27, #184 ) ;
#106 = ADVANCED_FACE ( 'NONE', ( #21 ), #166, .F. ) ;
#107 = DIRECTION ( 'NONE',  ( -3.491481338843133355E-15, 1.224646799147353454E-16, -1.000000000000000000 ) ) ;
#108 = APPROVAL_ROLE ( '' ) ;
#109 = AXIS2_PLACEMENT_3D ( 'NONE', #132, #24, #238 ) ;
#110 = VERTEX_POINT ( 'NONE', #240 ) ;
#111 = APPROVAL_ROLE ( '' ) ;
#112 = EDGE_LOOP ( 'NONE', ( #157 ) ) ;
#113 = MANIFOLD_SOLID_BREP ( 'Corps-Déplacer/Copier1[1]', #183 ) ;
#114 = EDGE_LOOP ( 'NONE', ( #156 ) ) ;
#115 = LOCAL_TIME ( 11, 46, 20.00000000000000000, #88 ) ;
#116 = CC_DESIGN_PERSON_AND_ORGANIZATION_ASSIGNMENT ( #190, #210, ( #237 ) ) ;
#117 = ORIENTED_EDGE ( 'NONE', *, *, #78, .F. ) ;
#118 = CC_DESIGN_DATE_AND_TIME_ASSIGNMENT ( #83, #188, ( #242 ) ) ;
#119 = CARTESIAN_POINT ( 'NONE',  ( 1.396592535537253027E-14, 0.0000000000000000000, 3.999999999999999112 ) ) ;
#120 = CIRCLE ( 'NONE', #38, 9.500000000000000000 ) ;
#121 = CC_DESIGN_APPROVAL ( #253, ( #36 ) ) ;
#122 = DIRECTION ( 'NONE',  ( 3.491481338843133355E-15, -0.0000000000000000000, 1.000000000000000000 ) ) ;
#123 = CARTESIAN_POINT ( 'NONE',  ( 1.745740669421566678E-13, -6.123233995736767663E-15, 50.00000000000000000 ) ) ;
#124 = ADVANCED_FACE ( 'NONE', ( #96, #142 ), #164, .T. ) ;
#125 = DIRECTION ( 'NONE',  ( -3.491481338843133355E-15, 1.224646799147353454E-16, -1.000000000000000000 ) ) ;
#126 = SECURITY_CLASSIFICATION_LEVEL ( 'unclassified' ) ;
#127 = PERSON ( 'UNSPECIFIED', 'UNSPECIFIED', 'UNSPECIFIED', ('UNSPECIFIED'), ('UNSPECIFIED'), ('UNSPECIFIED') ) ;
#128 = FACE_OUTER_BOUND ( 'NONE', #17, .T. ) ;
#129 =( NAMED_UNIT ( * ) PLANE_ANGLE_UNIT ( ) SI_UNIT ( $, .RADIAN. ) );
#130 = CIRCLE ( 'NONE', #140, 9.999999999999978684 ) ;
#131 = APPLICATION_PROTOCOL_DEFINITION ( 'international standard', 'config_control_design', 1994, #178 ) ;
#132 = CARTESIAN_POINT ( 'NONE',  ( -1.282749433769087757E-30, 0.0000000000000000000, -3.673940397442059868E-16 ) ) ;
#133 = COORDINATED_UNIVERSAL_TIME_OFFSET ( 1, 0, .AHEAD. ) ;
#134 = ORIENTED_EDGE ( 'NONE', *, *, #78, .T. ) ;
#135 = EDGE_LOOP ( 'NONE', ( #32 ) ) ;
#136 = CIRCLE ( 'NONE', #197, 9.999999999999998224 ) ;
#137 = EDGE_LOOP ( 'NONE', ( #246 ) ) ;
#138 = DIRECTION ( 'NONE',  ( 3.491481338843133355E-15, -0.0000000000000000000, 1.000000000000000000 ) ) ;
#139 = DIRECTION ( 'NONE',  ( -4.275831445896959482E-31, -1.000000000000000000, -1.224646799147353454E-16 ) ) ;
#140 = AXIS2_PLACEMENT_3D ( 'NONE', #71, #248, #231 ) ;
#141 = LOCAL_TIME ( 11, 46, 20.00000000000000000, #133 ) ;
#142 = FACE_OUTER_BOUND ( 'NONE', #112, .T. ) ;
#143 = CARTESIAN_POINT ( 'NONE',  ( 0.0000000000000000000, 0.0000000000000000000, 0.0000000000000000000 ) ) ;
#144 = EDGE_CURVE ( 'NONE', #110, #110, #189, .T. ) ;
#145 = CIRCLE ( 'NONE', #25, 8.000000000000005329 ) ;
#146 = CYLINDRICAL_SURFACE ( 'NONE', #109, 9.500000000000000000 ) ;
#147 = COORDINATED_UNIVERSAL_TIME_OFFSET ( 1, 0, .AHEAD. ) ;
#148 = CARTESIAN_POINT ( 'NONE',  ( 1.326762908760390423E-13, 0.0000000000000000000, 38.00000000000000000 ) ) ;
#149 = CARTESIAN_POINT ( 'NONE',  ( 3.631140592396858185E-13, 7.999999999999992895, 103.9999999999999858 ) ) ;
#150 = APPROVAL_STATUS ( 'not_yet_approved' ) ;
#151 = MECHANICAL_CONTEXT ( 'NONE', #57, 'mechanical' ) ;
#152 = ORGANIZATION ( 'UNSPECIFIED', 'UNSPECIFIED', '' ) ;
#153 = ADVANCED_FACE ( 'NONE', ( #77, #251 ), #86, .T. ) ;
#154 = CARTESIAN_POINT ( 'NONE',  ( 1.326762908760390423E-13, 9.999999999999994671, 38.00000000000000000 ) ) ;
#155 = EDGE_CURVE ( 'NONE', #14, #14, #130, .T. ) ;
#156 = ORIENTED_EDGE ( 'NONE', *, *, #91, .F. ) ;
#157 = ORIENTED_EDGE ( 'NONE', *, *, #155, .F. ) ;
#158 = AXIS2_PLACEMENT_3D ( 'NONE', #104, #107, #168 ) ;
#159 = ORIENTED_EDGE ( 'NONE', *, *, #244, .T. ) ;
#160 = DIRECTION ( 'NONE',  ( -1.000000000000000000, 0.0000000000000000000, 3.491481338843133355E-15 ) ) ;
#161 = DIRECTION ( 'NONE',  ( 1.000000000000000000, 0.0000000000000000000, -3.491481338843133355E-15 ) ) ;
#162 = DIRECTION ( 'NONE',  ( -3.491481338843133355E-15, 1.224646799147353454E-16, -1.000000000000000000 ) ) ;
#163 = PERSON_AND_ORGANIZATION ( #127, #152 ) ;
#164 = CONICAL_SURFACE ( 'NONE', #208, 9.999999999999978684, 0.7853981633974415066 ) ;
#165 = FACE_OUTER_BOUND ( 'NONE', #245, .T. ) ;
#166 = PLANE ( 'NONE',  #49 ) ;
#167 = APPROVAL ( #258, 'UNSPECIFIED' ) ;
#168 = DIRECTION ( 'NONE',  ( 4.275831445896959482E-31, 1.000000000000000000, 1.224646799147353454E-16 ) ) ;
#169 = APPROVAL_PERSON_ORGANIZATION ( #43, #167, #111 ) ;
#170 = SHAPE_DEFINITION_REPRESENTATION ( #90, #9 ) ;
#171 = CARTESIAN_POINT ( 'NONE',  ( 0.0000000000000000000, 0.0000000000000000000, 0.0000000000000000000 ) ) ;
#172 = PERSON_AND_ORGANIZATION_ROLE ( 'classification_officer' ) ;
#173 = AXIS2_PLACEMENT_3D ( 'NONE', #203, #180, #160 ) ;
#174 = LOCAL_TIME ( 11, 46, 20.00000000000000000, #192 ) ;
#175 = PERSON_AND_ORGANIZATION ( #127, #152 ) ;
#176 = CC_DESIGN_DATE_AND_TIME_ASSIGNMENT ( #30, #214, ( #237 ) ) ;
#177 = EDGE_LOOP ( 'NONE', ( #134 ) ) ;
#178 = APPLICATION_CONTEXT ( 'configuration controlled 3d designs of mechanical parts and assemblies' ) ;
#179 = AXIS2_PLACEMENT_3D ( 'NONE', #148, #259, #63 ) ;
#180 = DIRECTION ( 'NONE',  ( -3.491481338843133355E-15, 0.0000000000000000000, -1.000000000000000000 ) ) ;
#181 = ORIENTED_EDGE ( 'NONE', *, *, #144, .T. ) ;
#182 = EDGE_LOOP ( 'NONE', ( #46 ) ) ;
#183 = CLOSED_SHELL ( 'NONE', ( #97, #124, #106, #257, #34, #48 ) ) ;
#184 = LOCAL_TIME ( 11, 46, 20.00000000000000000, #147 ) ;
#185 = EDGE_CURVE ( 'NONE', #228, #228, #145, .T. ) ;
#186 = DIRECTION ( 'NONE',  ( 3.491481338843133355E-15, -0.0000000000000000000, 1.000000000000000000 ) ) ;
#187 = DIRECTION ( 'NONE',  ( -3.491481338843133355E-15, 1.224646799147353454E-16, -1.000000000000000000 ) ) ;
#188 = DATE_TIME_ROLE ( 'classification_date' ) ;
#189 = CIRCLE ( 'NONE', #67, 9.999999999999989342 ) ;
#190 = PERSON_AND_ORGANIZATION ( #127, #152 ) ;
#191 = DIRECTION ( 'NONE',  ( 3.491481338843133355E-15, -0.0000000000000000000, 1.000000000000000000 ) ) ;
#192 = COORDINATED_UNIVERSAL_TIME_OFFSET ( 1, 0, .AHEAD. ) ;
#193 = APPROVAL_DATE_TIME ( #105, #253 ) ;
#194 = CIRCLE ( 'NONE', #179, 9.500000000000000000 ) ;
#195 = VERTEX_POINT ( 'NONE', #260 ) ;
#196 = CALENDAR_DATE ( 2021, 18, 11 ) ;
#197 = AXIS2_PLACEMENT_3D ( 'NONE', #119, #227, #54 ) ;
#198 = EDGE_LOOP ( 'NONE', ( #220 ) ) ;
#199 = EDGE_LOOP ( 'NONE', ( #181 ) ) ;
#200 = CC_DESIGN_PERSON_AND_ORGANIZATION_ASSIGNMENT ( #13, #73, ( #36 ) ) ;
#201 = FACE_BOUND ( 'NONE', #135, .T. ) ;
#202 = CARTESIAN_POINT ( 'NONE',  ( 1.326762908760390423E-13, 7.498798913309283660E-32, 38.00000000000000000 ) ) ;
#203 = CARTESIAN_POINT ( 'NONE',  ( 1.745740669421566678E-13, 10.99999999999998579, 50.00000000000000000 ) ) ;
#204 = DIRECTION ( 'NONE',  ( 4.275831445896959482E-31, 1.000000000000000000, 1.224646799147353454E-16 ) ) ;
#205 = AXIS2_PLACEMENT_3D ( 'NONE', #202, #55, #224 ) ;
#206 = CIRCLE ( 'NONE', #74, 10.00000000000000000 ) ;
#207 = CARTESIAN_POINT ( 'NONE',  ( 1.326762908760390423E-13, 7.498798913309283660E-32, 38.00000000000000000 ) ) ;
#208 = AXIS2_PLACEMENT_3D ( 'NONE', #225, #40, #5 ) ;
#209 = DATE_AND_TIME ( #196, #141 ) ;
#210 = PERSON_AND_ORGANIZATION_ROLE ( 'creator' ) ;
#211 = EDGE_CURVE ( 'NONE', #100, #100, #85, .T. ) ;
#212 =( GEOMETRIC_REPRESENTATION_CONTEXT ( 3 ) GLOBAL_UNCERTAINTY_ASSIGNED_CONTEXT ( ( #94 ) ) GLOBAL_UNIT_ASSIGNED_CONTEXT ( ( #241, #129, #234 ) ) REPRESENTATION_CONTEXT ( 'NONE', 'WORKASPACE' ) );
#213 = VERTEX_POINT ( 'NONE', #154 ) ;
#214 = DATE_TIME_ROLE ( 'creation_date' ) ;
#215 = EDGE_LOOP ( 'NONE', ( #159 ) ) ;
#216 = ORIENTED_EDGE ( 'NONE', *, *, #155, .T. ) ;
#217 = PRODUCT ( '339066', '339066', '', ( #151 ) ) ;
#218 = APPROVAL_PERSON_ORGANIZATION ( #62, #11, #108 ) ;
#219 = CC_DESIGN_APPROVAL ( #11, ( #242 ) ) ;
#220 = ORIENTED_EDGE ( 'NONE', *, *, #185, .T. ) ;
#221 = FACE_OUTER_BOUND ( 'NONE', #33, .T. ) ;
#222 = PRODUCT_RELATED_PRODUCT_CATEGORY ( 'detail', '', ( #217 ) ) ;
#223 = AXIS2_PLACEMENT_3D ( 'NONE', #207, #93, #139 ) ;
#224 = DIRECTION ( 'NONE',  ( -4.275831445896959482E-31, -1.000000000000000000, -1.224646799147353454E-16 ) ) ;
#225 = CARTESIAN_POINT ( 'NONE',  ( 3.561310965619995265E-13, -1.249139735130300247E-14, 101.9999999999999858 ) ) ;
#226 = DIRECTION ( 'NONE',  ( -3.491481338843133355E-15, 1.224646799147353454E-16, -1.000000000000000000 ) ) ;
#227 = DIRECTION ( 'NONE',  ( 3.491481338843133355E-15, -0.0000000000000000000, 1.000000000000000000 ) ) ;
#228 = VERTEX_POINT ( 'NONE', #149 ) ;
#229 = CALENDAR_DATE ( 2021, 18, 11 ) ;
#230 = ADVANCED_FACE ( 'NONE', ( #28 ), #61, .T. ) ;
#231 = DIRECTION ( 'NONE',  ( 0.0000000000000000000, 1.000000000000000000, 0.0000000000000000000 ) ) ;
#232 = APPROVAL_DATE_TIME ( #236, #11 ) ;
#233 = DIRECTION ( 'NONE',  ( 1.000000000000000000, 0.0000000000000000000, 0.0000000000000000000 ) ) ;
#234 =( NAMED_UNIT ( * ) SI_UNIT ( $, .STERADIAN. ) SOLID_ANGLE_UNIT ( ) );
#235 = FACE_OUTER_BOUND ( 'NONE', #114, .T. ) ;
#236 = DATE_AND_TIME ( #229, #174 ) ;
#237 = PRODUCT_DEFINITION ( 'UNKNOWN', '', #36, #56 ) ;
#238 = DIRECTION ( 'NONE',  ( 1.000000000000000000, 0.0000000000000000000, -3.491481338843132566E-15 ) ) ;
#239 = APPLICATION_PROTOCOL_DEFINITION ( 'international standard', 'config_control_design', 1994, #57 ) ;
#240 = CARTESIAN_POINT ( 'NONE',  ( -9.999999999999815259, -6.123233995736767663E-15, 50.00000000000003553 ) ) ;
#241 =( LENGTH_UNIT ( ) NAMED_UNIT ( * ) SI_UNIT ( .MILLI., .METRE. ) );
#242 = SECURITY_CLASSIFICATION ( '', '', #126 ) ;
#243 = ORIENTED_EDGE ( 'NONE', *, *, #244, .F. ) ;
#244 = EDGE_CURVE ( 'NONE', #50, #50, #194, .T. ) ;
#245 = EDGE_LOOP ( 'NONE', ( #216 ) ) ;
#246 = ORIENTED_EDGE ( 'NONE', *, *, #185, .F. ) ;
#247 = CYLINDRICAL_SURFACE ( 'NONE', #79, 9.999999999999989342 ) ;
#248 = DIRECTION ( 'NONE',  ( -3.491481338843133355E-15, 1.224646799147353454E-16, -1.000000000000000000 ) ) ;
#249 = FACE_OUTER_BOUND ( 'NONE', #59, .T. ) ;
#250 = PERSON_AND_ORGANIZATION_ROLE ( 'design_supplier' ) ;
#251 = FACE_OUTER_BOUND ( 'NONE', #58, .T. ) ;
#252 = CARTESIAN_POINT ( 'NONE',  ( 0.0000000000000000000, 0.0000000000000000000, 0.0000000000000000000 ) ) ;
#253 = APPROVAL ( #255, 'UNSPECIFIED' ) ;
#254 = CARTESIAN_POINT ( 'NONE',  ( 10.00000000000001243, 0.0000000000000000000, 3.999999999999964473 ) ) ;
#255 = APPROVAL_STATUS ( 'not_yet_approved' ) ;
#256 = CARTESIAN_POINT ( 'NONE',  ( 3.631140592396858185E-13, -1.273632671113247276E-14, 103.9999999999999858 ) ) ;
#257 = ADVANCED_FACE ( 'NONE', ( #44, #235 ), #146, .T. ) ;
#258 = APPROVAL_STATUS ( 'not_yet_approved' ) ;
#259 = DIRECTION ( 'NONE',  ( 3.491481338843133355E-15, -0.0000000000000000000, 1.000000000000000000 ) ) ;
#260 = CARTESIAN_POINT ( 'NONE',  ( 9.500000000000174083, 0.0000000000000000000, 49.99999999999997158 ) ) ;
#261 = CALENDAR_DATE ( 2021, 18, 11 ) ;
#262 = ORIENTED_EDGE ( 'NONE', *, *, #144, .F. ) ;
#263 = CC_DESIGN_PERSON_AND_ORGANIZATION_ASSIGNMENT ( #84, #101, ( #217 ) ) ;
ENDSEC;
END-ISO-10303-21;
