ISO-10303-21;
HEADER;
FILE_DESCRIPTION (( 'STEP AP203' ),
    '1' );
FILE_NAME ('339065.step',
    '2021-11-18T10:46:19',
    ( '' ),
    ( '' ),
    'SwSTEP 2.0',
    'SolidWorks 2019',
    '' );
FILE_SCHEMA (( 'CONFIG_CONTROL_DESIGN' ));
ENDSEC;

DATA;
#1 = DIRECTION ( 'NONE',  ( -4.275831445896959482E-31, -1.000000000000000000, -1.224646799147353454E-16 ) ) ;
#2 = EDGE_LOOP ( 'NONE', ( #18 ) ) ;
#3 = AXIS2_PLACEMENT_3D ( 'NONE', #247, #172, #99 ) ;
#4 = DIRECTION ( 'NONE',  ( 3.491481338843133355E-15, -0.0000000000000000000, 1.000000000000000000 ) ) ;
#5 = PLANE ( 'NONE',  #200 ) ;
#6 = FACE_OUTER_BOUND ( 'NONE', #43, .T. ) ;
#7 = PLANE ( 'NONE',  #60 ) ;
#8 = FACE_OUTER_BOUND ( 'NONE', #169, .T. ) ;
#9 = DIRECTION ( 'NONE',  ( 1.000000000000000000, 0.0000000000000000000, -3.652049423109067235E-15 ) ) ;
#10 = AXIS2_PLACEMENT_3D ( 'NONE', #65, #221, #45 ) ;
#11 = DIRECTION ( 'NONE',  ( 3.491481338843133355E-15, -0.0000000000000000000, 1.000000000000000000 ) ) ;
#12 = EDGE_CURVE ( 'NONE', #254, #254, #121, .T. ) ;
#13 = PERSON_AND_ORGANIZATION ( #237, #112 ) ;
#14 = PERSON_AND_ORGANIZATION ( #237, #112 ) ;
#15 = CIRCLE ( 'NONE', #10, 9.500000000000000000 ) ;
#16 = ADVANCED_FACE ( 'NONE', ( #191 ), #56, .F. ) ;
#17 = DATE_TIME_ROLE ( 'classification_date' ) ;
#18 = ORIENTED_EDGE ( 'NONE', *, *, #217, .T. ) ;
#19 = APPLICATION_PROTOCOL_DEFINITION ( 'international standard', 'config_control_design', 1994, #63 ) ;
#20 = ORIENTED_EDGE ( 'NONE', *, *, #176, .T. ) ;
#21 = ADVANCED_FACE ( 'NONE', ( #96, #173 ), #183, .T. ) ;
#22 = EDGE_LOOP ( 'NONE', ( #146 ) ) ;
#23 = FACE_OUTER_BOUND ( 'NONE', #239, .T. ) ;
#24 = CARTESIAN_POINT ( 'NONE',  ( 3.631140592396858185E-13, -1.273632671113247276E-14, 103.9999999999999858 ) ) ;
#25 = DIRECTION ( 'NONE',  ( 4.275831445896959482E-31, 1.000000000000000000, 1.224646799147353454E-16 ) ) ;
#26 = CARTESIAN_POINT ( 'NONE',  ( 0.0000000000000000000, 0.0000000000000000000, 0.0000000000000000000 ) ) ;
#27 = DIRECTION ( 'NONE',  ( 0.0000000000000000000, 1.000000000000000000, 0.0000000000000000000 ) ) ;
#28 = DIRECTION ( 'NONE',  ( 1.000000000000000000, 0.0000000000000000000, -3.491481338843133355E-15 ) ) ;
#29 = AXIS2_PLACEMENT_3D ( 'NONE', #122, #59, #175 ) ;
#30 = CC_DESIGN_APPROVAL ( #40, ( #102 ) ) ;
#31 = COORDINATED_UNIVERSAL_TIME_OFFSET ( 1, 0, .AHEAD. ) ;
#32 = VERTEX_POINT ( 'NONE', #69 ) ;
#33 = COORDINATED_UNIVERSAL_TIME_OFFSET ( 1, 0, .AHEAD. ) ;
#34 = AXIS2_PLACEMENT_3D ( 'NONE', #76, #196, #51 ) ;
#35 = LOCAL_TIME ( 11, 46, 19.00000000000000000, #208 ) ;
#36 = APPLICATION_PROTOCOL_DEFINITION ( 'international standard', 'config_control_design', 1994, #190 ) ;
#37 = CC_DESIGN_PERSON_AND_ORGANIZATION_ASSIGNMENT ( #86, #209, ( #236 ) ) ;
#38 = ORIENTED_EDGE ( 'NONE', *, *, #246, .T. ) ;
#39 = ORIENTED_EDGE ( 'NONE', *, *, #78, .T. ) ;
#40 = APPROVAL ( #255, 'UNSPECIFIED' ) ;
#41 = EDGE_LOOP ( 'NONE', ( #129 ) ) ;
#42 = PRODUCT_DEFINITION_SHAPE ( 'NONE', 'NONE',  #102 ) ;
#43 = EDGE_LOOP ( 'NONE', ( #147 ) ) ;
#44 = CARTESIAN_POINT ( 'NONE',  ( 1.745740669421566678E-13, -6.123233995736767663E-15, 50.00000000000000000 ) ) ;
#45 = DIRECTION ( 'NONE',  ( 1.000000000000000000, 0.0000000000000000000, -3.652049423109067235E-15 ) ) ;
#46 = UNCERTAINTY_MEASURE_WITH_UNIT (LENGTH_MEASURE( 1.000000000000000082E-05 ), #260, 'distance_accuracy_value', 'NONE');
#47 = CYLINDRICAL_SURFACE ( 'NONE', #241, 9.999999999999989342 ) ;
#48 = CARTESIAN_POINT ( 'NONE',  ( 3.631140592396858185E-13, 1.759529233115088444E-30, 103.9999999999999858 ) ) ;
#49 = ADVANCED_FACE ( 'NONE', ( #202 ), #5, .T. ) ;
#50 = AXIS2_PLACEMENT_3D ( 'NONE', #180, #177, #9 ) ;
#51 = DIRECTION ( 'NONE',  ( 0.0000000000000000000, 1.000000000000000000, 0.0000000000000000000 ) ) ;
#52 = SECURITY_CLASSIFICATION_LEVEL ( 'unclassified' ) ;
#53 = VERTEX_POINT ( 'NONE', #232 ) ;
#54 = EDGE_LOOP ( 'NONE', ( #215 ) ) ;
#55 = AXIS2_PLACEMENT_3D ( 'NONE', #139, #141, #28 ) ;
#56 = PLANE ( 'NONE',  #92 ) ;
#57 = ADVANCED_FACE ( 'NONE', ( #64, #134 ), #155, .T. ) ;
#58 = DIRECTION ( 'NONE',  ( 0.0000000000000000000, 1.000000000000000000, 0.0000000000000000000 ) ) ;
#59 = DIRECTION ( 'NONE',  ( -3.491481338843133355E-15, 1.224646799147353454E-16, -1.000000000000000000 ) ) ;
#60 = AXIS2_PLACEMENT_3D ( 'NONE', #219, #197, #25 ) ;
#61 =( GEOMETRIC_REPRESENTATION_CONTEXT ( 3 ) GLOBAL_UNCERTAINTY_ASSIGNED_CONTEXT ( ( #46 ) ) GLOBAL_UNIT_ASSIGNED_CONTEXT ( ( #260, #225, #142 ) ) REPRESENTATION_CONTEXT ( 'NONE', 'WORKASPACE' ) );
#62 = DIRECTION ( 'NONE',  ( 3.491481338843133355E-15, -1.224646799147353454E-16, 1.000000000000000000 ) ) ;
#63 = APPLICATION_CONTEXT ( 'configuration controlled 3d designs of mechanical parts and assemblies' ) ;
#64 = FACE_OUTER_BOUND ( 'NONE', #41, .T. ) ;
#65 = CARTESIAN_POINT ( 'NONE',  ( 1.745740669421566678E-13, 0.0000000000000000000, 50.00000000000000000 ) ) ;
#66 = PERSON_AND_ORGANIZATION_ROLE ( 'creator' ) ;
#67 = CARTESIAN_POINT ( 'NONE',  ( 9.500000000000174083, 0.0000000000000000000, 49.99999999999997158 ) ) ;
#68 = CALENDAR_DATE ( 2021, 18, 11 ) ;
#69 = CARTESIAN_POINT ( 'NONE',  ( 1.326762908760390423E-13, 9.999999999999994671, 38.00000000000000000 ) ) ;
#70 = PRODUCT_DEFINITION_FORMATION_WITH_SPECIFIED_SOURCE ( 'ANY', '', #90, .NOT_KNOWN. ) ;
#71 = EDGE_LOOP ( 'NONE', ( #87 ) ) ;
#72 = AXIS2_PLACEMENT_3D ( 'NONE', #73, #243, #151 ) ;
#73 = CARTESIAN_POINT ( 'NONE',  ( 1.047444401652939691E-14, 0.0000000000000000000, 2.999999999999999112 ) ) ;
#74 = LOCAL_TIME ( 11, 46, 19.00000000000000000, #33 ) ;
#75 = MECHANICAL_CONTEXT ( 'NONE', #63, 'mechanical' ) ;
#76 = CARTESIAN_POINT ( 'NONE',  ( 3.561310965619995265E-13, -1.249139735130300247E-14, 101.9999999999999858 ) ) ;
#77 = DIRECTION ( 'NONE',  ( 1.000000000000000000, 0.0000000000000000000, -3.491481338843133355E-15 ) ) ;
#78 = EDGE_CURVE ( 'NONE', #250, #250, #214, .T. ) ;
#79 = CYLINDRICAL_SURFACE ( 'NONE', #29, 10.00000000000000000 ) ;
#80 = APPROVAL_ROLE ( '' ) ;
#81 = AXIS2_PLACEMENT_3D ( 'NONE', #229, #144, #163 ) ;
#82 = CYLINDRICAL_SURFACE ( 'NONE', #201, 9.500000000000000000 ) ;
#83 = FACE_OUTER_BOUND ( 'NONE', #22, .T. ) ;
#84 = APPROVAL_ROLE ( '' ) ;
#85 = APPROVAL_DATE_TIME ( #228, #40 ) ;
#86 = PERSON_AND_ORGANIZATION ( #237, #112 ) ;
#87 = ORIENTED_EDGE ( 'NONE', *, *, #203, .T. ) ;
#88 = EDGE_LOOP ( 'NONE', ( #20 ) ) ;
#89 = ORIENTED_EDGE ( 'NONE', *, *, #176, .F. ) ;
#90 = PRODUCT ( '339065', '339065', '', ( #75 ) ) ;
#91 = ORIENTED_EDGE ( 'NONE', *, *, #198, .F. ) ;
#92 = AXIS2_PLACEMENT_3D ( 'NONE', #166, #263, #1 ) ;
#93 = FACE_OUTER_BOUND ( 'NONE', #234, .T. ) ;
#94 = CARTESIAN_POINT ( 'NONE',  ( 3.561310965619995265E-13, -1.249139735130300247E-14, 101.9999999999999858 ) ) ;
#95 = DESIGN_CONTEXT ( 'detailed design', #190, 'design' ) ;
#96 = FACE_BOUND ( 'NONE', #2, .T. ) ;
#97 = PLANE ( 'NONE',  #149 ) ;
#98 = CC_DESIGN_DATE_AND_TIME_ASSIGNMENT ( #187, #17, ( #236 ) ) ;
#99 = DIRECTION ( 'NONE',  ( -1.000000000000000000, 0.0000000000000000000, 3.491481338843133355E-15 ) ) ;
#100 = DATE_TIME_ROLE ( 'creation_date' ) ;
#101 = CARTESIAN_POINT ( 'NONE',  ( 10.00000000000000888, 0.0000000000000000000, 2.999999999999964029 ) ) ;
#102 = PRODUCT_DEFINITION ( 'UNKNOWN', '', #70, #95 ) ;
#103 = PERSON_AND_ORGANIZATION ( #237, #112 ) ;
#104 = CARTESIAN_POINT ( 'NONE',  ( -9.999999999999815259, -6.123233995736767663E-15, 50.00000000000003553 ) ) ;
#105 = AXIS2_PLACEMENT_3D ( 'NONE', #94, #245, #58 ) ;
#106 = CARTESIAN_POINT ( 'NONE',  ( 9.500000000000131450, 0.0000000000000000000, 37.99999999999996447 ) ) ;
#107 = CALENDAR_DATE ( 2021, 18, 11 ) ;
#108 = ORIENTED_EDGE ( 'NONE', *, *, #256, .T. ) ;
#109 = ORIENTED_EDGE ( 'NONE', *, *, #256, .F. ) ;
#110 = CIRCLE ( 'NONE', #222, 10.00000000000000000 ) ;
#111 = EDGE_LOOP ( 'NONE', ( #238 ) ) ;
#112 = ORGANIZATION ( 'UNSPECIFIED', 'UNSPECIFIED', '' ) ;
#113 = EDGE_LOOP ( 'NONE', ( #109 ) ) ;
#114 = CC_DESIGN_PERSON_AND_ORGANIZATION_ASSIGNMENT ( #14, #140, ( #70 ) ) ;
#115 = EDGE_LOOP ( 'NONE', ( #91 ) ) ;
#116 = ADVANCED_FACE ( 'NONE', ( #220, #6 ), #79, .T. ) ;
#117 = DIRECTION ( 'NONE',  ( -3.491481338843133355E-15, 1.224646799147353454E-16, -1.000000000000000000 ) ) ;
#118 = DIRECTION ( 'NONE',  ( 0.0000000000000000000, 1.000000000000000000, 0.0000000000000000000 ) ) ;
#119 = MANIFOLD_SOLID_BREP ( 'Corps-Déplacer/Copier1[2]', #240 ) ;
#120 = DIRECTION ( 'NONE',  ( -4.275831445896959482E-31, -1.000000000000000000, -1.224646799147353454E-16 ) ) ;
#121 = CIRCLE ( 'NONE', #72, 9.999999999999998224 ) ;
#122 = CARTESIAN_POINT ( 'NONE',  ( 0.0000000000000000000, 0.0000000000000000000, 0.0000000000000000000 ) ) ;
#123 = DATE_AND_TIME ( #248, #170 ) ;
#124 = DIRECTION ( 'NONE',  ( 4.275831445896960358E-31, 1.000000000000000000, 1.224646799147353454E-16 ) ) ;
#125 = PERSON_AND_ORGANIZATION ( #237, #112 ) ;
#126 = VERTEX_POINT ( 'NONE', #104 ) ;
#127 = AXIS2_PLACEMENT_3D ( 'NONE', #132, #133, #77 ) ;
#128 = DATE_AND_TIME ( #68, #218 ) ;
#129 = ORIENTED_EDGE ( 'NONE', *, *, #246, .F. ) ;
#130 = ADVANCED_FACE ( 'NONE', ( #135, #8 ), #47, .T. ) ;
#131 = EDGE_LOOP ( 'NONE', ( #89 ) ) ;
#132 = CARTESIAN_POINT ( 'NONE',  ( 0.0000000000000000000, 0.0000000000000000000, 0.0000000000000000000 ) ) ;
#133 = DIRECTION ( 'NONE',  ( 3.491481338843133355E-15, -0.0000000000000000000, 1.000000000000000000 ) ) ;
#134 = FACE_BOUND ( 'NONE', #88, .T. ) ;
#135 = FACE_OUTER_BOUND ( 'NONE', #71, .T. ) ;
#136 = CARTESIAN_POINT ( 'NONE',  ( 1.326762908760390423E-13, -4.653657836759942730E-15, 38.00000000000000000 ) ) ;
#137 = CC_DESIGN_PERSON_AND_ORGANIZATION_ASSIGNMENT ( #125, #165, ( #102 ) ) ;
#138 = CIRCLE ( 'NONE', #34, 9.999999999999978684 ) ;
#139 = CARTESIAN_POINT ( 'NONE',  ( 1.047444401652939691E-14, 0.0000000000000000000, 2.999999999999999112 ) ) ;
#140 = PERSON_AND_ORGANIZATION_ROLE ( 'design_supplier' ) ;
#141 = DIRECTION ( 'NONE',  ( 3.491481338843133355E-15, -0.0000000000000000000, 1.000000000000000000 ) ) ;
#142 =( NAMED_UNIT ( * ) SI_UNIT ( $, .STERADIAN. ) SOLID_ANGLE_UNIT ( ) );
#143 = APPROVAL_STATUS ( 'not_yet_approved' ) ;
#144 = DIRECTION ( 'NONE',  ( 0.0000000000000000000, 0.0000000000000000000, 1.000000000000000000 ) ) ;
#145 = CC_DESIGN_APPROVAL ( #206, ( #236 ) ) ;
#146 = ORIENTED_EDGE ( 'NONE', *, *, #217, .F. ) ;
#147 = ORIENTED_EDGE ( 'NONE', *, *, #198, .T. ) ;
#148 = ORIENTED_EDGE ( 'NONE', *, *, #12, .F. ) ;
#149 = AXIS2_PLACEMENT_3D ( 'NONE', #48, #160, #249 ) ;
#150 = CIRCLE ( 'NONE', #50, 9.500000000000000000 ) ;
#151 = DIRECTION ( 'NONE',  ( 1.000000000000000000, 0.0000000000000000000, -3.512815038853035155E-15 ) ) ;
#152 = ADVANCED_FACE ( 'NONE', ( #156 ), #7, .T. ) ;
#153 = FACE_OUTER_BOUND ( 'NONE', #211, .T. ) ;
#154 = PRODUCT_RELATED_PRODUCT_CATEGORY ( 'detail', '', ( #90 ) ) ;
#155 = PLANE ( 'NONE',  #3 ) ;
#156 = FACE_OUTER_BOUND ( 'NONE', #193, .T. ) ;
#157 = COORDINATED_UNIVERSAL_TIME_OFFSET ( 1, 0, .AHEAD. ) ;
#158 = APPROVAL_PERSON_ORGANIZATION ( #207, #206, #80 ) ;
#159 = CARTESIAN_POINT ( 'NONE',  ( -1.282749433769087757E-30, 0.0000000000000000000, -3.673940397442059868E-16 ) ) ;
#160 = DIRECTION ( 'NONE',  ( -3.491481338843133355E-15, 1.224646799147353454E-16, -1.000000000000000000 ) ) ;
#161 = VERTEX_POINT ( 'NONE', #230 ) ;
#162 = PERSON_AND_ORGANIZATION_ROLE ( 'design_owner' ) ;
#163 = DIRECTION ( 'NONE',  ( 1.000000000000000000, 0.0000000000000000000, 0.0000000000000000000 ) ) ;
#164 = CIRCLE ( 'NONE', #224, 9.999999999999989342 ) ;
#165 = PERSON_AND_ORGANIZATION_ROLE ( 'creator' ) ;
#166 = CARTESIAN_POINT ( 'NONE',  ( 1.326762908760390423E-13, 7.498798913309283660E-32, 38.00000000000000000 ) ) ;
#167 = ADVANCED_FACE ( 'NONE', ( #23, #171 ), #82, .T. ) ;
#168 = CC_DESIGN_APPROVAL ( #261, ( #70 ) ) ;
#169 = EDGE_LOOP ( 'NONE', ( #38 ) ) ;
#170 = LOCAL_TIME ( 11, 46, 19.00000000000000000, #157 ) ;
#171 = FACE_OUTER_BOUND ( 'NONE', #131, .T. ) ;
#172 = DIRECTION ( 'NONE',  ( -3.491481338843133355E-15, 0.0000000000000000000, -1.000000000000000000 ) ) ;
#173 = FACE_OUTER_BOUND ( 'NONE', #54, .T. ) ;
#174 = CC_DESIGN_SECURITY_CLASSIFICATION ( #236, ( #70 ) ) ;
#175 = DIRECTION ( 'NONE',  ( 4.275831445896958607E-31, 1.000000000000000000, 1.224646799147353454E-16 ) ) ;
#176 = EDGE_CURVE ( 'NONE', #258, #258, #15, .T. ) ;
#177 = DIRECTION ( 'NONE',  ( 3.491481338843133355E-15, -0.0000000000000000000, 1.000000000000000000 ) ) ;
#178 = ADVANCED_BREP_SHAPE_REPRESENTATION ( '339065', ( #204, #119, #81 ), #61 ) ;
#179 = APPROVAL_DATE_TIME ( #233, #261 ) ;
#180 = CARTESIAN_POINT ( 'NONE',  ( 1.326762908760390423E-13, 0.0000000000000000000, 38.00000000000000000 ) ) ;
#181 = APPROVAL_ROLE ( '' ) ;
#182 = APPROVAL_DATE_TIME ( #123, #206 ) ;
#183 = CONICAL_SURFACE ( 'NONE', #105, 9.999999999999978684, 0.7853981633974415066 ) ;
#184 = PERSON_AND_ORGANIZATION ( #237, #112 ) ;
#185 = TOROIDAL_SURFACE ( 'NONE', #55, 7.000000000000000000, 2.999999999999999112 ) ;
#186 = ADVANCED_FACE ( 'NONE', ( #83 ), #97, .F. ) ;
#187 = DATE_AND_TIME ( #107, #194 ) ;
#188 = CC_DESIGN_PERSON_AND_ORGANIZATION_ASSIGNMENT ( #103, #66, ( #70 ) ) ;
#189 = APPROVAL_PERSON_ORGANIZATION ( #184, #40, #84 ) ;
#190 = APPLICATION_CONTEXT ( 'configuration controlled 3d designs of mechanical parts and assemblies' ) ;
#191 = FACE_OUTER_BOUND ( 'NONE', #113, .T. ) ;
#192 = SHAPE_DEFINITION_REPRESENTATION ( #42, #178 ) ;
#193 = EDGE_LOOP ( 'NONE', ( #216 ) ) ;
#194 = LOCAL_TIME ( 11, 46, 19.00000000000000000, #257 ) ;
#195 = CARTESIAN_POINT ( 'NONE',  ( 1.326762908760390423E-13, 7.498798913309283660E-32, 38.00000000000000000 ) ) ;
#196 = DIRECTION ( 'NONE',  ( -3.491481338843133355E-15, 1.224646799147353454E-16, -1.000000000000000000 ) ) ;
#197 = DIRECTION ( 'NONE',  ( -3.491481338843133355E-15, 1.224646799147353454E-16, -1.000000000000000000 ) ) ;
#198 = EDGE_CURVE ( 'NONE', #32, #32, #110, .T. ) ;
#199 = CLOSED_SHELL ( 'NONE', ( #130, #21, #186, #167, #57, #16 ) ) ;
#200 = AXIS2_PLACEMENT_3D ( 'NONE', #195, #62, #120 ) ;
#201 = AXIS2_PLACEMENT_3D ( 'NONE', #159, #4, #244 ) ;
#202 = FACE_OUTER_BOUND ( 'NONE', #115, .T. ) ;
#203 = EDGE_CURVE ( 'NONE', #161, #161, #138, .T. ) ;
#204 = MANIFOLD_SOLID_BREP ( 'Corps-Déplacer/Copier1[1]', #199 ) ;
#205 = DIRECTION ( 'NONE',  ( -3.491481338843133355E-15, 1.224646799147353454E-16, -1.000000000000000000 ) ) ;
#206 = APPROVAL ( #259, 'UNSPECIFIED' ) ;
#207 = PERSON_AND_ORGANIZATION ( #237, #112 ) ;
#208 = COORDINATED_UNIVERSAL_TIME_OFFSET ( 1, 0, .AHEAD. ) ;
#209 = PERSON_AND_ORGANIZATION_ROLE ( 'classification_officer' ) ;
#210 = VERTEX_POINT ( 'NONE', #106 ) ;
#211 = EDGE_LOOP ( 'NONE', ( #39 ) ) ;
#212 = CALENDAR_DATE ( 2021, 18, 11 ) ;
#213 = CC_DESIGN_PERSON_AND_ORGANIZATION_ASSIGNMENT ( #13, #162, ( #90 ) ) ;
#214 = CIRCLE ( 'NONE', #127, 7.000000000000000000 ) ;
#215 = ORIENTED_EDGE ( 'NONE', *, *, #203, .F. ) ;
#216 = ORIENTED_EDGE ( 'NONE', *, *, #78, .F. ) ;
#217 = EDGE_CURVE ( 'NONE', #53, #53, #227, .T. ) ;
#218 = LOCAL_TIME ( 11, 46, 19.00000000000000000, #31 ) ;
#219 = CARTESIAN_POINT ( 'NONE',  ( -2.137915722948479478E-30, 7.498798913309291323E-32, -6.123233995736767268E-16 ) ) ;
#220 = FACE_OUTER_BOUND ( 'NONE', #111, .T. ) ;
#221 = DIRECTION ( 'NONE',  ( 3.491481338843133355E-15, -0.0000000000000000000, 1.000000000000000000 ) ) ;
#222 = AXIS2_PLACEMENT_3D ( 'NONE', #136, #223, #118 ) ;
#223 = DIRECTION ( 'NONE',  ( -3.491481338843133355E-15, 1.224646799147353454E-16, -1.000000000000000000 ) ) ;
#224 = AXIS2_PLACEMENT_3D ( 'NONE', #44, #11, #226 ) ;
#225 =( NAMED_UNIT ( * ) PLANE_ANGLE_UNIT ( ) SI_UNIT ( $, .RADIAN. ) );
#226 = DIRECTION ( 'NONE',  ( -1.000000000000000000, 0.0000000000000000000, 3.469446951953617739E-15 ) ) ;
#227 = CIRCLE ( 'NONE', #242, 8.000000000000005329 ) ;
#228 = DATE_AND_TIME ( #212, #74 ) ;
#229 = CARTESIAN_POINT ( 'NONE',  ( 0.0000000000000000000, 0.0000000000000000000, 0.0000000000000000000 ) ) ;
#230 = CARTESIAN_POINT ( 'NONE',  ( 3.561310965619995265E-13, 9.999999999999968026, 101.9999999999999858 ) ) ;
#231 = CC_DESIGN_DATE_AND_TIME_ASSIGNMENT ( #128, #100, ( #102 ) ) ;
#232 = CARTESIAN_POINT ( 'NONE',  ( 3.631140592396858185E-13, 7.999999999999992895, 103.9999999999999858 ) ) ;
#233 = DATE_AND_TIME ( #253, #35 ) ;
#234 = EDGE_LOOP ( 'NONE', ( #148 ) ) ;
#235 = ADVANCED_FACE ( 'NONE', ( #153, #93 ), #185, .T. ) ;
#236 = SECURITY_CLASSIFICATION ( '', '', #52 ) ;
#237 = PERSON ( 'UNSPECIFIED', 'UNSPECIFIED', 'UNSPECIFIED', ('UNSPECIFIED'), ('UNSPECIFIED'), ('UNSPECIFIED') ) ;
#238 = ORIENTED_EDGE ( 'NONE', *, *, #12, .T. ) ;
#239 = EDGE_LOOP ( 'NONE', ( #108 ) ) ;
#240 = CLOSED_SHELL ( 'NONE', ( #116, #49, #235, #152 ) ) ;
#241 = AXIS2_PLACEMENT_3D ( 'NONE', #26, #117, #124 ) ;
#242 = AXIS2_PLACEMENT_3D ( 'NONE', #24, #205, #27 ) ;
#243 = DIRECTION ( 'NONE',  ( 3.491481338843133355E-15, -0.0000000000000000000, 1.000000000000000000 ) ) ;
#244 = DIRECTION ( 'NONE',  ( 1.000000000000000000, 0.0000000000000000000, -3.491481338843132566E-15 ) ) ;
#245 = DIRECTION ( 'NONE',  ( -3.491481338843133355E-15, 1.224646799147353454E-16, -1.000000000000000000 ) ) ;
#246 = EDGE_CURVE ( 'NONE', #126, #126, #164, .T. ) ;
#247 = CARTESIAN_POINT ( 'NONE',  ( 1.745740669421566678E-13, 10.99999999999998579, 50.00000000000000000 ) ) ;
#248 = CALENDAR_DATE ( 2021, 18, 11 ) ;
#249 = DIRECTION ( 'NONE',  ( 4.275831445896959482E-31, 1.000000000000000000, 1.224646799147353454E-16 ) ) ;
#250 = VERTEX_POINT ( 'NONE', #252 ) ;
#251 = APPROVAL_PERSON_ORGANIZATION ( #262, #261, #181 ) ;
#252 = CARTESIAN_POINT ( 'NONE',  ( 7.000000000000000000, 0.0000000000000000000, -2.444036937190193349E-14 ) ) ;
#253 = CALENDAR_DATE ( 2021, 18, 11 ) ;
#254 = VERTEX_POINT ( 'NONE', #101 ) ;
#255 = APPROVAL_STATUS ( 'not_yet_approved' ) ;
#256 = EDGE_CURVE ( 'NONE', #210, #210, #150, .T. ) ;
#257 = COORDINATED_UNIVERSAL_TIME_OFFSET ( 1, 0, .AHEAD. ) ;
#258 = VERTEX_POINT ( 'NONE', #67 ) ;
#259 = APPROVAL_STATUS ( 'not_yet_approved' ) ;
#260 =( LENGTH_UNIT ( ) NAMED_UNIT ( * ) SI_UNIT ( .MILLI., .METRE. ) );
#261 = APPROVAL ( #143, 'UNSPECIFIED' ) ;
#262 = PERSON_AND_ORGANIZATION ( #237, #112 ) ;
#263 = DIRECTION ( 'NONE',  ( 3.491481338843133355E-15, -1.224646799147353454E-16, 1.000000000000000000 ) ) ;
ENDSEC;
END-ISO-10303-21;
