ISO-10303-21;
HEADER;
FILE_DESCRIPTION (( 'STEP AP203' ),
    '1' );
FILE_NAME ('339064.step',
    '2021-11-18T10:46:18',
    ( '' ),
    ( '' ),
    'SwSTEP 2.0',
    'SolidWorks 2019',
    '' );
FILE_SCHEMA (( 'CONFIG_CONTROL_DESIGN' ));
ENDSEC;

DATA;
#1 = DIRECTION ( 'NONE',  ( 1.000000000000000000, 0.0000000000000000000, -3.491481338843133355E-15 ) ) ;
#2 = APPROVAL_STATUS ( 'not_yet_approved' ) ;
#3 = DIRECTION ( 'NONE',  ( 3.491481338843133355E-15, -1.224646799147353454E-16, 1.000000000000000000 ) ) ;
#4 = EDGE_LOOP ( 'NONE', ( #222 ) ) ;
#5 = LOCAL_TIME ( 11, 46, 18.00000000000000000, #127 ) ;
#6 = EDGE_LOOP ( 'NONE', ( #62 ) ) ;
#7 = DIRECTION ( 'NONE',  ( -1.000000000000000000, 0.0000000000000000000, 3.469446951953617739E-15 ) ) ;
#8 = DIRECTION ( 'NONE',  ( 3.491481338843133355E-15, -0.0000000000000000000, 1.000000000000000000 ) ) ;
#9 = CC_DESIGN_SECURITY_CLASSIFICATION ( #36, ( #235 ) ) ;
#10 = CARTESIAN_POINT ( 'NONE',  ( 6.982962677686263555E-15, 0.0000000000000000000, 1.999999999999999112 ) ) ;
#11 = ADVANCED_FACE ( 'NONE', ( #145 ), #249, .F. ) ;
#12 = FACE_BOUND ( 'NONE', #94, .T. ) ;
#13 = CC_DESIGN_PERSON_AND_ORGANIZATION_ASSIGNMENT ( #112, #104, ( #183 ) ) ;
#14 = CARTESIAN_POINT ( 'NONE',  ( 1.745740669421566678E-13, 10.99999999999998579, 50.00000000000000000 ) ) ;
#15 = AXIS2_PLACEMENT_3D ( 'NONE', #63, #38, #21 ) ;
#16 = CARTESIAN_POINT ( 'NONE',  ( -9.999999999999815259, -6.123233995736767663E-15, 50.00000000000003553 ) ) ;
#17 = APPLICATION_CONTEXT ( 'configuration controlled 3d designs of mechanical parts and assemblies' ) ;
#18 = APPROVAL_PERSON_ORGANIZATION ( #125, #35, #103 ) ;
#19 = ADVANCED_FACE ( 'NONE', ( #207 ), #191, .F. ) ;
#20 = EDGE_LOOP ( 'NONE', ( #151 ) ) ;
#21 = DIRECTION ( 'NONE',  ( -4.275831445896959482E-31, -1.000000000000000000, -1.224646799147353454E-16 ) ) ;
#22 = CARTESIAN_POINT ( 'NONE',  ( 1.745740669421566678E-13, 0.0000000000000000000, 50.00000000000000000 ) ) ;
#23 = PERSON_AND_ORGANIZATION ( #160, #83 ) ;
#24 = ORIENTED_EDGE ( 'NONE', *, *, #135, .T. ) ;
#25 = EDGE_LOOP ( 'NONE', ( #115 ) ) ;
#26 = AXIS2_PLACEMENT_3D ( 'NONE', #212, #8, #48 ) ;
#27 = FACE_OUTER_BOUND ( 'NONE', #6, .T. ) ;
#28 = PLANE ( 'NONE',  #80 ) ;
#29 = FACE_OUTER_BOUND ( 'NONE', #108, .T. ) ;
#30 = CIRCLE ( 'NONE', #34, 9.999999999999989342 ) ;
#31 = CARTESIAN_POINT ( 'NONE',  ( 0.0000000000000000000, 0.0000000000000000000, 0.0000000000000000000 ) ) ;
#32 = CARTESIAN_POINT ( 'NONE',  ( -2.137915722948479478E-30, 7.498798913309291323E-32, -6.123233995736767268E-16 ) ) ;
#33 = CARTESIAN_POINT ( 'NONE',  ( 3.631140592396858185E-13, 7.999999999999992895, 103.9999999999999858 ) ) ;
#34 = AXIS2_PLACEMENT_3D ( 'NONE', #256, #158, #7 ) ;
#35 = APPROVAL ( #208, 'UNSPECIFIED' ) ;
#36 = SECURITY_CLASSIFICATION ( '', '', #147 ) ;
#37 = PERSON_AND_ORGANIZATION_ROLE ( 'design_owner' ) ;
#38 = DIRECTION ( 'NONE',  ( 3.491481338843133355E-15, -1.224646799147353454E-16, 1.000000000000000000 ) ) ;
#39 = PERSON_AND_ORGANIZATION ( #160, #83 ) ;
#40 = ORIENTED_EDGE ( 'NONE', *, *, #69, .F. ) ;
#41 = AXIS2_PLACEMENT_3D ( 'NONE', #14, #180, #215 ) ;
#42 = PLANE ( 'NONE',  #164 ) ;
#43 = APPLICATION_PROTOCOL_DEFINITION ( 'international standard', 'config_control_design', 1994, #17 ) ;
#44 = EDGE_LOOP ( 'NONE', ( #24 ) ) ;
#45 = DATE_TIME_ROLE ( 'creation_date' ) ;
#46 = EDGE_CURVE ( 'NONE', #96, #96, #114, .T. ) ;
#47 = PRODUCT ( '339064', '339064', '', ( #260 ) ) ;
#48 = DIRECTION ( 'NONE',  ( 1.000000000000000000, 0.0000000000000000000, -3.652049423109067235E-15 ) ) ;
#49 = FACE_OUTER_BOUND ( 'NONE', #105, .T. ) ;
#50 = DESIGN_CONTEXT ( 'detailed design', #17, 'design' ) ;
#51 = DIRECTION ( 'NONE',  ( 3.491481338843133355E-15, -0.0000000000000000000, 1.000000000000000000 ) ) ;
#52 = CC_DESIGN_PERSON_AND_ORGANIZATION_ASSIGNMENT ( #228, #84, ( #36 ) ) ;
#53 = VERTEX_POINT ( 'NONE', #214 ) ;
#54 = LOCAL_TIME ( 11, 46, 18.00000000000000000, #152 ) ;
#55 = DIRECTION ( 'NONE',  ( 0.0000000000000000000, 1.000000000000000000, 0.0000000000000000000 ) ) ;
#56 = CARTESIAN_POINT ( 'NONE',  ( 3.561310965619995265E-13, 9.999999999999968026, 101.9999999999999858 ) ) ;
#57 = CIRCLE ( 'NONE', #155, 9.999999999999998224 ) ;
#58 = DIRECTION ( 'NONE',  ( 0.0000000000000000000, 0.0000000000000000000, 1.000000000000000000 ) ) ;
#59 = CC_DESIGN_DATE_AND_TIME_ASSIGNMENT ( #185, #45, ( #183 ) ) ;
#60 = AXIS2_PLACEMENT_3D ( 'NONE', #238, #200, #138 ) ;
#61 = DATE_AND_TIME ( #169, #195 ) ;
#62 = ORIENTED_EDGE ( 'NONE', *, *, #120, .F. ) ;
#63 = CARTESIAN_POINT ( 'NONE',  ( 1.326762908760390423E-13, 7.498798913309283660E-32, 38.00000000000000000 ) ) ;
#64 = PERSON_AND_ORGANIZATION_ROLE ( 'design_supplier' ) ;
#65 = ORIENTED_EDGE ( 'NONE', *, *, #46, .T. ) ;
#66 = DATE_AND_TIME ( #205, #5 ) ;
#67 = AXIS2_PLACEMENT_3D ( 'NONE', #211, #179, #98 ) ;
#68 = EDGE_LOOP ( 'NONE', ( #244 ) ) ;
#69 = EDGE_CURVE ( 'NONE', #159, #159, #143, .T. ) ;
#70 = DIRECTION ( 'NONE',  ( 3.491481338843133355E-15, -0.0000000000000000000, 1.000000000000000000 ) ) ;
#71 = FACE_OUTER_BOUND ( 'NONE', #229, .T. ) ;
#72 = PRODUCT_DEFINITION_SHAPE ( 'NONE', 'NONE',  #183 ) ;
#73 = DIRECTION ( 'NONE',  ( -3.491481338843133355E-15, 1.224646799147353454E-16, -1.000000000000000000 ) ) ;
#74 = AXIS2_PLACEMENT_3D ( 'NONE', #31, #118, #196 ) ;
#75 = DIRECTION ( 'NONE',  ( 0.0000000000000000000, 1.000000000000000000, 0.0000000000000000000 ) ) ;
#76 = DIRECTION ( 'NONE',  ( -3.491481338843133355E-15, 1.224646799147353454E-16, -1.000000000000000000 ) ) ;
#77 = FACE_OUTER_BOUND ( 'NONE', #193, .T. ) ;
#78 = LOCAL_TIME ( 11, 46, 18.00000000000000000, #192 ) ;
#79 = ADVANCED_FACE ( 'NONE', ( #170 ), #42, .T. ) ;
#80 = AXIS2_PLACEMENT_3D ( 'NONE', #32, #198, #117 ) ;
#81 = CC_DESIGN_DATE_AND_TIME_ASSIGNMENT ( #61, #248, ( #36 ) ) ;
#82 = APPROVAL_DATE_TIME ( #66, #149 ) ;
#83 = ORGANIZATION ( 'UNSPECIFIED', 'UNSPECIFIED', '' ) ;
#84 = PERSON_AND_ORGANIZATION_ROLE ( 'classification_officer' ) ;
#85 = EDGE_LOOP ( 'NONE', ( #65 ) ) ;
#86 = DIRECTION ( 'NONE',  ( 1.000000000000000000, 0.0000000000000000000, -3.652049423109067235E-15 ) ) ;
#87 = COORDINATED_UNIVERSAL_TIME_OFFSET ( 1, 0, .AHEAD. ) ;
#88 = DIRECTION ( 'NONE',  ( -4.275831445896959482E-31, -1.000000000000000000, -1.224646799147353454E-16 ) ) ;
#89 = EDGE_CURVE ( 'NONE', #53, #53, #57, .T. ) ;
#90 = CALENDAR_DATE ( 2021, 18, 11 ) ;
#91 = LOCAL_TIME ( 11, 46, 18.00000000000000000, #226 ) ;
#92 = ORIENTED_EDGE ( 'NONE', *, *, #69, .T. ) ;
#93 = CC_DESIGN_PERSON_AND_ORGANIZATION_ASSIGNMENT ( #247, #64, ( #235 ) ) ;
#94 = EDGE_LOOP ( 'NONE', ( #92 ) ) ;
#95 = FACE_BOUND ( 'NONE', #44, .T. ) ;
#96 = VERTEX_POINT ( 'NONE', #254 ) ;
#97 = DIRECTION ( 'NONE',  ( 1.000000000000000000, 0.0000000000000000000, -3.512815038853035155E-15 ) ) ;
#98 = DIRECTION ( 'NONE',  ( 0.0000000000000000000, 1.000000000000000000, 0.0000000000000000000 ) ) ;
#99 = EDGE_CURVE ( 'NONE', #199, #199, #148, .T. ) ;
#100 = CARTESIAN_POINT ( 'NONE',  ( 1.326762908760390423E-13, 9.999999999999994671, 38.00000000000000000 ) ) ;
#101 = AXIS2_PLACEMENT_3D ( 'NONE', #121, #76, #55 ) ;
#102 =( NAMED_UNIT ( * ) SI_UNIT ( $, .STERADIAN. ) SOLID_ANGLE_UNIT ( ) );
#103 = APPROVAL_ROLE ( '' ) ;
#104 = PERSON_AND_ORGANIZATION_ROLE ( 'creator' ) ;
#105 = EDGE_LOOP ( 'NONE', ( #246 ) ) ;
#106 = CIRCLE ( 'NONE', #67, 8.000000000000005329 ) ;
#107 = CALENDAR_DATE ( 2021, 18, 11 ) ;
#108 = EDGE_LOOP ( 'NONE', ( #146 ) ) ;
#109 = APPROVAL_ROLE ( '' ) ;
#110 = ORIENTED_EDGE ( 'NONE', *, *, #99, .F. ) ;
#111 = ADVANCED_BREP_SHAPE_REPRESENTATION ( '339064', ( #150, #236, #136 ), #201 ) ;
#112 = PERSON_AND_ORGANIZATION ( #160, #83 ) ;
#113 = EDGE_LOOP ( 'NONE', ( #128 ) ) ;
#114 = CIRCLE ( 'NONE', #263, 8.000000000000000000 ) ;
#115 = ORIENTED_EDGE ( 'NONE', *, *, #124, .T. ) ;
#116 = DIRECTION ( 'NONE',  ( 0.0000000000000000000, 1.000000000000000000, 0.0000000000000000000 ) ) ;
#117 = DIRECTION ( 'NONE',  ( 4.275831445896959482E-31, 1.000000000000000000, 1.224646799147353454E-16 ) ) ;
#118 = DIRECTION ( 'NONE',  ( -3.491481338843133355E-15, 1.224646799147353454E-16, -1.000000000000000000 ) ) ;
#119 = CYLINDRICAL_SURFACE ( 'NONE', #60, 9.999999999999989342 ) ;
#120 = EDGE_CURVE ( 'NONE', #258, #258, #30, .T. ) ;
#121 = CARTESIAN_POINT ( 'NONE',  ( 3.561310965619995265E-13, -1.249139735130300247E-14, 101.9999999999999858 ) ) ;
#122 = AXIS2_PLACEMENT_3D ( 'NONE', #189, #224, #221 ) ;
#123 = APPROVAL_PERSON_ORGANIZATION ( #39, #149, #109 ) ;
#124 = EDGE_CURVE ( 'NONE', #241, #241, #252, .T. ) ;
#125 = PERSON_AND_ORGANIZATION ( #160, #83 ) ;
#126 = CARTESIAN_POINT ( 'NONE',  ( 0.0000000000000000000, 0.0000000000000000000, 0.0000000000000000000 ) ) ;
#127 = COORDINATED_UNIVERSAL_TIME_OFFSET ( 1, 0, .AHEAD. ) ;
#128 = ORIENTED_EDGE ( 'NONE', *, *, #216, .F. ) ;
#129 = CLOSED_SHELL ( 'NONE', ( #142, #79, #261, #255 ) ) ;
#130 = CARTESIAN_POINT ( 'NONE',  ( 1.326762908760390423E-13, 7.498798913309283660E-32, 38.00000000000000000 ) ) ;
#131 = APPROVAL ( #243, 'UNSPECIFIED' ) ;
#132 = ORIENTED_EDGE ( 'NONE', *, *, #216, .T. ) ;
#133 = FACE_OUTER_BOUND ( 'NONE', #85, .T. ) ;
#134 = DIRECTION ( 'NONE',  ( 1.000000000000000000, 0.0000000000000000000, -3.491481338843133355E-15 ) ) ;
#135 = EDGE_CURVE ( 'NONE', #217, #217, #106, .T. ) ;
#136 = AXIS2_PLACEMENT_3D ( 'NONE', #240, #58, #141 ) ;
#137 = FACE_OUTER_BOUND ( 'NONE', #206, .T. ) ;
#138 = DIRECTION ( 'NONE',  ( 4.275831445896960358E-31, 1.000000000000000000, 1.224646799147353454E-16 ) ) ;
#139 = CC_DESIGN_PERSON_AND_ORGANIZATION_ASSIGNMENT ( #262, #165, ( #235 ) ) ;
#140 =( NAMED_UNIT ( * ) PLANE_ANGLE_UNIT ( ) SI_UNIT ( $, .RADIAN. ) );
#141 = DIRECTION ( 'NONE',  ( 1.000000000000000000, 0.0000000000000000000, 0.0000000000000000000 ) ) ;
#142 = ADVANCED_FACE ( 'NONE', ( #77, #154 ), #233, .T. ) ;
#143 = CIRCLE ( 'NONE', #218, 9.500000000000000000 ) ;
#144 = APPROVAL_ROLE ( '' ) ;
#145 = FACE_OUTER_BOUND ( 'NONE', #227, .T. ) ;
#146 = ORIENTED_EDGE ( 'NONE', *, *, #120, .T. ) ;
#147 = SECURITY_CLASSIFICATION_LEVEL ( 'unclassified' ) ;
#148 = CIRCLE ( 'NONE', #101, 9.999999999999978684 ) ;
#149 = APPROVAL ( #2, 'UNSPECIFIED' ) ;
#150 = MANIFOLD_SOLID_BREP ( 'Corps-Déplacer/Copier1[1]', #231 ) ;
#151 = ORIENTED_EDGE ( 'NONE', *, *, #89, .F. ) ;
#152 = COORDINATED_UNIVERSAL_TIME_OFFSET ( 1, 0, .AHEAD. ) ;
#153 = DIRECTION ( 'NONE',  ( 3.491481338843133355E-15, -0.0000000000000000000, 1.000000000000000000 ) ) ;
#154 = FACE_OUTER_BOUND ( 'NONE', #25, .T. ) ;
#155 = AXIS2_PLACEMENT_3D ( 'NONE', #171, #153, #97 ) ;
#156 = DIRECTION ( 'NONE',  ( -3.491481338843133355E-15, 1.224646799147353454E-16, -1.000000000000000000 ) ) ;
#157 = UNCERTAINTY_MEASURE_WITH_UNIT (LENGTH_MEASURE( 1.000000000000000082E-05 ), #163, 'distance_accuracy_value', 'NONE');
#158 = DIRECTION ( 'NONE',  ( 3.491481338843133355E-15, -0.0000000000000000000, 1.000000000000000000 ) ) ;
#159 = VERTEX_POINT ( 'NONE', #234 ) ;
#160 = PERSON ( 'UNSPECIFIED', 'UNSPECIFIED', 'UNSPECIFIED', ('UNSPECIFIED'), ('UNSPECIFIED'), ('UNSPECIFIED') ) ;
#161 = CC_DESIGN_APPROVAL ( #149, ( #235 ) ) ;
#162 = DIRECTION ( 'NONE',  ( 3.491481338843133355E-15, -0.0000000000000000000, 1.000000000000000000 ) ) ;
#163 =( LENGTH_UNIT ( ) NAMED_UNIT ( * ) SI_UNIT ( .MILLI., .METRE. ) );
#164 = AXIS2_PLACEMENT_3D ( 'NONE', #130, #3, #88 ) ;
#165 = PERSON_AND_ORGANIZATION_ROLE ( 'creator' ) ;
#166 = AXIS2_PLACEMENT_3D ( 'NONE', #251, #162, #250 ) ;
#167 = PERSON_AND_ORGANIZATION ( #160, #83 ) ;
#168 = ORIENTED_EDGE ( 'NONE', *, *, #135, .F. ) ;
#169 = CALENDAR_DATE ( 2021, 18, 11 ) ;
#170 = FACE_OUTER_BOUND ( 'NONE', #68, .T. ) ;
#171 = CARTESIAN_POINT ( 'NONE',  ( 6.982962677686263555E-15, 0.0000000000000000000, 1.999999999999999112 ) ) ;
#172 = TOROIDAL_SURFACE ( 'NONE', #182, 8.000000000000000000, 1.999999999999999112 ) ;
#173 = APPROVAL_DATE_TIME ( #204, #35 ) ;
#174 = EDGE_LOOP ( 'NONE', ( #132 ) ) ;
#175 = ADVANCED_FACE ( 'NONE', ( #176, #137 ), #230, .T. ) ;
#176 = FACE_OUTER_BOUND ( 'NONE', #174, .T. ) ;
#177 = CARTESIAN_POINT ( 'NONE',  ( 1.326762908760390423E-13, -4.653657836759942730E-15, 38.00000000000000000 ) ) ;
#178 = CARTESIAN_POINT ( 'NONE',  ( 3.561310965619995265E-13, -1.249139735130300247E-14, 101.9999999999999858 ) ) ;
#179 = DIRECTION ( 'NONE',  ( -3.491481338843133355E-15, 1.224646799147353454E-16, -1.000000000000000000 ) ) ;
#180 = DIRECTION ( 'NONE',  ( -3.491481338843133355E-15, 0.0000000000000000000, -1.000000000000000000 ) ) ;
#181 = CARTESIAN_POINT ( 'NONE',  ( 9.500000000000131450, 0.0000000000000000000, 37.99999999999996447 ) ) ;
#182 = AXIS2_PLACEMENT_3D ( 'NONE', #10, #51, #134 ) ;
#183 = PRODUCT_DEFINITION ( 'UNKNOWN', '', #235, #50 ) ;
#184 = PRODUCT_RELATED_PRODUCT_CATEGORY ( 'detail', '', ( #47 ) ) ;
#185 = DATE_AND_TIME ( #90, #91 ) ;
#186 = DIRECTION ( 'NONE',  ( 3.491481338843133355E-15, -0.0000000000000000000, 1.000000000000000000 ) ) ;
#187 = CONICAL_SURFACE ( 'NONE', #259, 9.999999999999978684, 0.7853981633974415066 ) ;
#188 = SHAPE_DEFINITION_REPRESENTATION ( #72, #111 ) ;
#189 = CARTESIAN_POINT ( 'NONE',  ( 3.631140592396858185E-13, 1.759529233115088444E-30, 103.9999999999999858 ) ) ;
#190 = CALENDAR_DATE ( 2021, 18, 11 ) ;
#191 = PLANE ( 'NONE',  #15 ) ;
#192 = COORDINATED_UNIVERSAL_TIME_OFFSET ( 1, 0, .AHEAD. ) ;
#193 = EDGE_LOOP ( 'NONE', ( #242 ) ) ;
#194 = ADVANCED_FACE ( 'NONE', ( #95, #71 ), #187, .T. ) ;
#195 = LOCAL_TIME ( 11, 46, 18.00000000000000000, #87 ) ;
#196 = DIRECTION ( 'NONE',  ( 4.275831445896958607E-31, 1.000000000000000000, 1.224646799147353454E-16 ) ) ;
#197 = FACE_OUTER_BOUND ( 'NONE', #20, .T. ) ;
#198 = DIRECTION ( 'NONE',  ( -3.491481338843133355E-15, 1.224646799147353454E-16, -1.000000000000000000 ) ) ;
#199 = VERTEX_POINT ( 'NONE', #56 ) ;
#200 = DIRECTION ( 'NONE',  ( -3.491481338843133355E-15, 1.224646799147353454E-16, -1.000000000000000000 ) ) ;
#201 =( GEOMETRIC_REPRESENTATION_CONTEXT ( 3 ) GLOBAL_UNCERTAINTY_ASSIGNED_CONTEXT ( ( #157 ) ) GLOBAL_UNIT_ASSIGNED_CONTEXT ( ( #163, #140, #102 ) ) REPRESENTATION_CONTEXT ( 'NONE', 'WORKASPACE' ) );
#202 = VERTEX_POINT ( 'NONE', #181 ) ;
#203 = CC_DESIGN_APPROVAL ( #35, ( #183 ) ) ;
#204 = DATE_AND_TIME ( #190, #54 ) ;
#205 = CALENDAR_DATE ( 2021, 18, 11 ) ;
#206 = EDGE_LOOP ( 'NONE', ( #40 ) ) ;
#207 = FACE_OUTER_BOUND ( 'NONE', #113, .T. ) ;
#208 = APPROVAL_STATUS ( 'not_yet_approved' ) ;
#209 = ADVANCED_FACE ( 'NONE', ( #253, #29 ), #119, .T. ) ;
#210 = AXIS2_PLACEMENT_3D ( 'NONE', #177, #73, #116 ) ;
#211 = CARTESIAN_POINT ( 'NONE',  ( 3.631140592396858185E-13, -1.273632671113247276E-14, 103.9999999999999858 ) ) ;
#212 = CARTESIAN_POINT ( 'NONE',  ( 1.326762908760390423E-13, 0.0000000000000000000, 38.00000000000000000 ) ) ;
#213 = CIRCLE ( 'NONE', #26, 9.500000000000000000 ) ;
#214 = CARTESIAN_POINT ( 'NONE',  ( 10.00000000000000533, 0.0000000000000000000, 1.999999999999964029 ) ) ;
#215 = DIRECTION ( 'NONE',  ( -1.000000000000000000, 0.0000000000000000000, 3.491481338843133355E-15 ) ) ;
#216 = EDGE_CURVE ( 'NONE', #202, #202, #213, .T. ) ;
#217 = VERTEX_POINT ( 'NONE', #33 ) ;
#218 = AXIS2_PLACEMENT_3D ( 'NONE', #22, #186, #86 ) ;
#219 = CC_DESIGN_APPROVAL ( #131, ( #36 ) ) ;
#220 = APPROVAL_DATE_TIME ( #223, #131 ) ;
#221 = DIRECTION ( 'NONE',  ( 4.275831445896959482E-31, 1.000000000000000000, 1.224646799147353454E-16 ) ) ;
#222 = ORIENTED_EDGE ( 'NONE', *, *, #99, .T. ) ;
#223 = DATE_AND_TIME ( #107, #78 ) ;
#224 = DIRECTION ( 'NONE',  ( -3.491481338843133355E-15, 1.224646799147353454E-16, -1.000000000000000000 ) ) ;
#225 = CC_DESIGN_PERSON_AND_ORGANIZATION_ASSIGNMENT ( #23, #37, ( #47 ) ) ;
#226 = COORDINATED_UNIVERSAL_TIME_OFFSET ( 1, 0, .AHEAD. ) ;
#227 = EDGE_LOOP ( 'NONE', ( #168 ) ) ;
#228 = PERSON_AND_ORGANIZATION ( #160, #83 ) ;
#229 = EDGE_LOOP ( 'NONE', ( #110 ) ) ;
#230 = CYLINDRICAL_SURFACE ( 'NONE', #166, 9.500000000000000000 ) ;
#231 = CLOSED_SHELL ( 'NONE', ( #209, #194, #11, #175, #237, #19 ) ) ;
#232 = PLANE ( 'NONE',  #41 ) ;
#233 = CYLINDRICAL_SURFACE ( 'NONE', #74, 10.00000000000000000 ) ;
#234 = CARTESIAN_POINT ( 'NONE',  ( 9.500000000000174083, 0.0000000000000000000, 49.99999999999997158 ) ) ;
#235 = PRODUCT_DEFINITION_FORMATION_WITH_SPECIFIED_SOURCE ( 'ANY', '', #47, .NOT_KNOWN. ) ;
#236 = MANIFOLD_SOLID_BREP ( 'Corps-Déplacer/Copier1[2]', #129 ) ;
#237 = ADVANCED_FACE ( 'NONE', ( #27, #12 ), #232, .T. ) ;
#238 = CARTESIAN_POINT ( 'NONE',  ( 0.0000000000000000000, 0.0000000000000000000, 0.0000000000000000000 ) ) ;
#239 = APPLICATION_PROTOCOL_DEFINITION ( 'international standard', 'config_control_design', 1994, #245 ) ;
#240 = CARTESIAN_POINT ( 'NONE',  ( 0.0000000000000000000, 0.0000000000000000000, 0.0000000000000000000 ) ) ;
#241 = VERTEX_POINT ( 'NONE', #100 ) ;
#242 = ORIENTED_EDGE ( 'NONE', *, *, #89, .T. ) ;
#243 = APPROVAL_STATUS ( 'not_yet_approved' ) ;
#244 = ORIENTED_EDGE ( 'NONE', *, *, #124, .F. ) ;
#245 = APPLICATION_CONTEXT ( 'configuration controlled 3d designs of mechanical parts and assemblies' ) ;
#246 = ORIENTED_EDGE ( 'NONE', *, *, #46, .F. ) ;
#247 = PERSON_AND_ORGANIZATION ( #160, #83 ) ;
#248 = DATE_TIME_ROLE ( 'classification_date' ) ;
#249 = PLANE ( 'NONE',  #122 ) ;
#250 = DIRECTION ( 'NONE',  ( 1.000000000000000000, 0.0000000000000000000, -3.491481338843132566E-15 ) ) ;
#251 = CARTESIAN_POINT ( 'NONE',  ( -1.282749433769087757E-30, 0.0000000000000000000, -3.673940397442059868E-16 ) ) ;
#252 = CIRCLE ( 'NONE', #210, 10.00000000000000000 ) ;
#253 = FACE_OUTER_BOUND ( 'NONE', #4, .T. ) ;
#254 = CARTESIAN_POINT ( 'NONE',  ( 8.000000000000000000, 0.0000000000000000000, -2.793185071074506684E-14 ) ) ;
#255 = ADVANCED_FACE ( 'NONE', ( #49 ), #28, .T. ) ;
#256 = CARTESIAN_POINT ( 'NONE',  ( 1.745740669421566678E-13, -6.123233995736767663E-15, 50.00000000000000000 ) ) ;
#257 = APPROVAL_PERSON_ORGANIZATION ( #167, #131, #144 ) ;
#258 = VERTEX_POINT ( 'NONE', #16 ) ;
#259 = AXIS2_PLACEMENT_3D ( 'NONE', #178, #156, #75 ) ;
#260 = MECHANICAL_CONTEXT ( 'NONE', #245, 'mechanical' ) ;
#261 = ADVANCED_FACE ( 'NONE', ( #133, #197 ), #172, .T. ) ;
#262 = PERSON_AND_ORGANIZATION ( #160, #83 ) ;
#263 = AXIS2_PLACEMENT_3D ( 'NONE', #126, #70, #1 ) ;
ENDSEC;
END-ISO-10303-21;
