ISO-10303-21;
HEADER;
FILE_DESCRIPTION (( 'STEP AP203' ),
    '1' );
FILE_NAME ('339063.step',
    '2021-11-18T10:46:18',
    ( '' ),
    ( '' ),
    'SwSTEP 2.0',
    'SolidWorks 2019',
    '' );
FILE_SCHEMA (( 'CONFIG_CONTROL_DESIGN' ));
ENDSEC;

DATA;
#1 = CARTESIAN_POINT ( 'NONE',  ( 2.271282991659793715E-30, 0.0000000000000000000, 6.505213034913026604E-16 ) ) ;
#2 = ORIENTED_EDGE ( 'NONE', *, *, #112, .F. ) ;
#3 = APPROVAL_ROLE ( '' ) ;
#4 = FACE_OUTER_BOUND ( 'NONE', #149, .T. ) ;
#5 = EDGE_LOOP ( 'NONE', ( #167 ) ) ;
#6 = PERSON_AND_ORGANIZATION ( #221, #254 ) ;
#7 = ORIENTED_EDGE ( 'NONE', *, *, #56, .T. ) ;
#8 = SECURITY_CLASSIFICATION_LEVEL ( 'unclassified' ) ;
#9 = APPLICATION_CONTEXT ( 'configuration controlled 3d designs of mechanical parts and assemblies' ) ;
#10 = CARTESIAN_POINT ( 'NONE',  ( -2.137915722948479478E-30, 7.498798913309291323E-32, -6.123233995736767268E-16 ) ) ;
#11 = CC_DESIGN_SECURITY_CLASSIFICATION ( #89, ( #74 ) ) ;
#12 = CIRCLE ( 'NONE', #247, 9.000000000000001776 ) ;
#13 = COORDINATED_UNIVERSAL_TIME_OFFSET ( 1, 0, .AHEAD. ) ;
#14 = FACE_OUTER_BOUND ( 'NONE', #130, .T. ) ;
#15 = LOCAL_TIME ( 11, 46, 18.00000000000000000, #100 ) ;
#16 = DIRECTION ( 'NONE',  ( -3.491481338843133355E-15, 1.224646799147353454E-16, -1.000000000000000000 ) ) ;
#17 = ORIENTED_EDGE ( 'NONE', *, *, #240, .T. ) ;
#18 = CARTESIAN_POINT ( 'NONE',  ( 1.326762908760390423E-13, 7.498798913309283660E-32, 38.00000000000000000 ) ) ;
#19 = APPROVAL ( #180, 'UNSPECIFIED' ) ;
#20 = DIRECTION ( 'NONE',  ( 1.000000000000000000, 0.0000000000000000000, -3.491481338843133355E-15 ) ) ;
#21 = DIRECTION ( 'NONE',  ( 3.491481338843133355E-15, -0.0000000000000000000, 1.000000000000000000 ) ) ;
#22 = DATE_AND_TIME ( #127, #202 ) ;
#23 = FACE_OUTER_BOUND ( 'NONE', #35, .T. ) ;
#24 = CARTESIAN_POINT ( 'NONE',  ( 1.745740669421566678E-13, 0.0000000000000000000, 50.00000000000000000 ) ) ;
#25 = APPROVAL_STATUS ( 'not_yet_approved' ) ;
#26 = PERSON_AND_ORGANIZATION_ROLE ( 'creator' ) ;
#27 = APPLICATION_PROTOCOL_DEFINITION ( 'international standard', 'config_control_design', 1994, #9 ) ;
#28 = CIRCLE ( 'NONE', #231, 9.999999999999978684 ) ;
#29 = ADVANCED_FACE ( 'NONE', ( #256 ), #162, .T. ) ;
#30 = PERSON_AND_ORGANIZATION_ROLE ( 'design_owner' ) ;
#31 = APPROVAL ( #25, 'UNSPECIFIED' ) ;
#32 = AXIS2_PLACEMENT_3D ( 'NONE', #36, #16, #183 ) ;
#33 = DIRECTION ( 'NONE',  ( 4.275831445896959482E-31, 1.000000000000000000, 1.224646799147353454E-16 ) ) ;
#34 = COORDINATED_UNIVERSAL_TIME_OFFSET ( 1, 0, .AHEAD. ) ;
#35 = EDGE_LOOP ( 'NONE', ( #173 ) ) ;
#36 = CARTESIAN_POINT ( 'NONE',  ( 3.561310965619995265E-13, -1.249139735130300247E-14, 101.9999999999999858 ) ) ;
#37 = EDGE_CURVE ( 'NONE', #59, #59, #28, .T. ) ;
#38 = EDGE_LOOP ( 'NONE', ( #169 ) ) ;
#39 = DIRECTION ( 'NONE',  ( 3.491481338843133355E-15, -1.224646799147353454E-16, 1.000000000000000000 ) ) ;
#40 = EDGE_LOOP ( 'NONE', ( #107 ) ) ;
#41 = CARTESIAN_POINT ( 'NONE',  ( 1.745740669421566678E-13, 10.99999999999998579, 50.00000000000000000 ) ) ;
#42 = LOCAL_TIME ( 11, 46, 18.00000000000000000, #34 ) ;
#43 = CARTESIAN_POINT ( 'NONE',  ( 1.745740669421566678E-13, -6.123233995736767663E-15, 50.00000000000000000 ) ) ;
#44 = AXIS2_PLACEMENT_3D ( 'NONE', #18, #184, #75 ) ;
#45 = FACE_OUTER_BOUND ( 'NONE', #227, .T. ) ;
#46 = VERTEX_POINT ( 'NONE', #214 ) ;
#47 = ORIENTED_EDGE ( 'NONE', *, *, #116, .F. ) ;
#48 = EDGE_CURVE ( 'NONE', #46, #46, #263, .T. ) ;
#49 = AXIS2_PLACEMENT_3D ( 'NONE', #52, #108, #186 ) ;
#50 = CLOSED_SHELL ( 'NONE', ( #61, #125, #103, #196, #215, #190 ) ) ;
#51 = DIRECTION ( 'NONE',  ( -1.000000000000000000, 0.0000000000000000000, 3.469446951953617739E-15 ) ) ;
#52 = CARTESIAN_POINT ( 'NONE',  ( 0.0000000000000000000, 0.0000000000000000000, 0.0000000000000000000 ) ) ;
#53 = AXIS2_PLACEMENT_3D ( 'NONE', #177, #194, #172 ) ;
#54 = CIRCLE ( 'NONE', #106, 8.000000000000005329 ) ;
#55 = CARTESIAN_POINT ( 'NONE',  ( 3.491481338843131778E-15, 0.0000000000000000000, 0.9999999999999995559 ) ) ;
#56 = EDGE_CURVE ( 'NONE', #68, #68, #200, .T. ) ;
#57 = APPROVAL_PERSON_ORGANIZATION ( #178, #31, #182 ) ;
#58 = EDGE_LOOP ( 'NONE', ( #7 ) ) ;
#59 = VERTEX_POINT ( 'NONE', #152 ) ;
#60 = DIRECTION ( 'NONE',  ( 1.000000000000000000, 0.0000000000000000000, -3.652049423109067235E-15 ) ) ;
#61 = ADVANCED_FACE ( 'NONE', ( #23, #87 ), #156, .T. ) ;
#62 = ORIENTED_EDGE ( 'NONE', *, *, #112, .T. ) ;
#63 = CONICAL_SURFACE ( 'NONE', #32, 9.999999999999978684, 0.7853981633974415066 ) ;
#64 = ORIENTED_EDGE ( 'NONE', *, *, #69, .T. ) ;
#65 = DIRECTION ( 'NONE',  ( -4.275831445896959482E-31, -1.000000000000000000, -1.224646799147353454E-16 ) ) ;
#66 = ORIENTED_EDGE ( 'NONE', *, *, #69, .F. ) ;
#67 = PERSON_AND_ORGANIZATION_ROLE ( 'creator' ) ;
#68 = VERTEX_POINT ( 'NONE', #195 ) ;
#69 = EDGE_CURVE ( 'NONE', #90, #90, #54, .T. ) ;
#70 = CARTESIAN_POINT ( 'NONE',  ( 1.326762908760390423E-13, -4.653657836759942730E-15, 38.00000000000000000 ) ) ;
#71 = DIRECTION ( 'NONE',  ( 4.275831445896959482E-31, 1.000000000000000000, 1.224646799147353454E-16 ) ) ;
#72 = APPROVAL_DATE_TIME ( #139, #255 ) ;
#73 = APPROVAL_ROLE ( '' ) ;
#74 = PRODUCT_DEFINITION_FORMATION_WITH_SPECIFIED_SOURCE ( 'ANY', '', #77, .NOT_KNOWN. ) ;
#75 = DIRECTION ( 'NONE',  ( -4.275831445896959482E-31, -1.000000000000000000, -1.224646799147353454E-16 ) ) ;
#76 = AXIS2_PLACEMENT_3D ( 'NONE', #55, #105, #128 ) ;
#77 = PRODUCT ( '339063', '339063', '', ( #224 ) ) ;
#78 = PERSON_AND_ORGANIZATION ( #221, #254 ) ;
#79 = DIRECTION ( 'NONE',  ( 1.000000000000000000, 0.0000000000000000000, -3.491481338843133355E-15 ) ) ;
#80 = ORIENTED_EDGE ( 'NONE', *, *, #116, .T. ) ;
#81 = CARTESIAN_POINT ( 'NONE',  ( -1.282749433769087757E-30, 0.0000000000000000000, -3.673940397442059868E-16 ) ) ;
#82 = FACE_OUTER_BOUND ( 'NONE', #58, .T. ) ;
#83 = CYLINDRICAL_SURFACE ( 'NONE', #53, 10.00000000000000000 ) ;
#84 = EDGE_LOOP ( 'NONE', ( #17 ) ) ;
#85 = DIRECTION ( 'NONE',  ( -1.000000000000000000, 0.0000000000000000000, 3.491481338843133355E-15 ) ) ;
#86 = FACE_OUTER_BOUND ( 'NONE', #188, .T. ) ;
#87 = FACE_OUTER_BOUND ( 'NONE', #185, .T. ) ;
#88 = CARTESIAN_POINT ( 'NONE',  ( 1.326762908760390423E-13, 7.498798913309283660E-32, 38.00000000000000000 ) ) ;
#89 = SECURITY_CLASSIFICATION ( '', '', #8 ) ;
#90 = VERTEX_POINT ( 'NONE', #111 ) ;
#91 = CARTESIAN_POINT ( 'NONE',  ( 3.631140592396858185E-13, -1.273632671113247276E-14, 103.9999999999999858 ) ) ;
#92 = PERSON_AND_ORGANIZATION ( #221, #254 ) ;
#93 =( NAMED_UNIT ( * ) PLANE_ANGLE_UNIT ( ) SI_UNIT ( $, .RADIAN. ) );
#94 = EDGE_CURVE ( 'NONE', #253, #253, #209, .T. ) ;
#95 = EDGE_LOOP ( 'NONE', ( #64 ) ) ;
#96 = CIRCLE ( 'NONE', #76, 9.999999999999998224 ) ;
#97 = CALENDAR_DATE ( 2021, 18, 11 ) ;
#98 = CARTESIAN_POINT ( 'NONE',  ( 1.326762908760390423E-13, 0.0000000000000000000, 38.00000000000000000 ) ) ;
#99 = CALENDAR_DATE ( 2021, 18, 11 ) ;
#100 = COORDINATED_UNIVERSAL_TIME_OFFSET ( 1, 0, .AHEAD. ) ;
#101 = DIRECTION ( 'NONE',  ( 1.000000000000000000, 0.0000000000000000000, -3.491481338843132566E-15 ) ) ;
#102 = CC_DESIGN_PERSON_AND_ORGANIZATION_ASSIGNMENT ( #6, #198, ( #74 ) ) ;
#103 = ADVANCED_FACE ( 'NONE', ( #86 ), #122, .F. ) ;
#104 = AXIS2_PLACEMENT_3D ( 'NONE', #24, #138, #230 ) ;
#105 = DIRECTION ( 'NONE',  ( 3.491481338843133355E-15, -0.0000000000000000000, 1.000000000000000000 ) ) ;
#106 = AXIS2_PLACEMENT_3D ( 'NONE', #91, #120, #241 ) ;
#107 = ORIENTED_EDGE ( 'NONE', *, *, #37, .F. ) ;
#108 = DIRECTION ( 'NONE',  ( 0.0000000000000000000, 0.0000000000000000000, 1.000000000000000000 ) ) ;
#109 = FACE_OUTER_BOUND ( 'NONE', #248, .T. ) ;
#110 = CARTESIAN_POINT ( 'NONE',  ( 9.000000000000001776, 0.0000000000000000000, -3.077281074609690385E-14 ) ) ;
#111 = CARTESIAN_POINT ( 'NONE',  ( 3.631140592396858185E-13, 7.999999999999992895, 103.9999999999999858 ) ) ;
#112 = EDGE_CURVE ( 'NONE', #179, #179, #96, .T. ) ;
#113 = AXIS2_PLACEMENT_3D ( 'NONE', #41, #158, #85 ) ;
#114 = PERSON_AND_ORGANIZATION ( #221, #254 ) ;
#115 = CALENDAR_DATE ( 2021, 18, 11 ) ;
#116 = EDGE_CURVE ( 'NONE', #212, #212, #12, .T. ) ;
#117 = DIRECTION ( 'NONE',  ( -3.491481338843133355E-15, 1.224646799147353454E-16, -1.000000000000000000 ) ) ;
#118 =( NAMED_UNIT ( * ) SI_UNIT ( $, .STERADIAN. ) SOLID_ANGLE_UNIT ( ) );
#119 = APPROVAL_PERSON_ORGANIZATION ( #114, #19, #73 ) ;
#120 = DIRECTION ( 'NONE',  ( -3.491481338843133355E-15, 1.224646799147353454E-16, -1.000000000000000000 ) ) ;
#121 = AXIS2_PLACEMENT_3D ( 'NONE', #157, #176, #234 ) ;
#122 = PLANE ( 'NONE',  #187 ) ;
#123 = DATE_AND_TIME ( #219, #229 ) ;
#124 = MANIFOLD_SOLID_BREP ( 'Corps-Déplacer/Copier1[2]', #203 ) ;
#125 = ADVANCED_FACE ( 'NONE', ( #168, #249 ), #63, .T. ) ;
#126 = APPLICATION_PROTOCOL_DEFINITION ( 'international standard', 'config_control_design', 1994, #144 ) ;
#127 = CALENDAR_DATE ( 2021, 18, 11 ) ;
#128 = DIRECTION ( 'NONE',  ( 1.000000000000000000, 0.0000000000000000000, -3.491130995403325066E-15 ) ) ;
#129 = MANIFOLD_SOLID_BREP ( 'Corps-Déplacer/Copier1[1]', #50 ) ;
#130 = EDGE_LOOP ( 'NONE', ( #159 ) ) ;
#131 = PLANE ( 'NONE',  #44 ) ;
#132 = VERTEX_POINT ( 'NONE', #208 ) ;
#133 = EDGE_LOOP ( 'NONE', ( #80 ) ) ;
#134 = DATE_TIME_ROLE ( 'classification_date' ) ;
#135 = AXIS2_PLACEMENT_3D ( 'NONE', #175, #21, #20 ) ;
#136 = CARTESIAN_POINT ( 'NONE',  ( 9.500000000000131450, 0.0000000000000000000, 37.99999999999996447 ) ) ;
#137 = CC_DESIGN_DATE_AND_TIME_ASSIGNMENT ( #163, #141, ( #142 ) ) ;
#138 = DIRECTION ( 'NONE',  ( 3.491481338843133355E-15, -0.0000000000000000000, 1.000000000000000000 ) ) ;
#139 = DATE_AND_TIME ( #115, #15 ) ;
#140 = DIRECTION ( 'NONE',  ( -3.491481338843133355E-15, 1.224646799147353454E-16, -1.000000000000000000 ) ) ;
#141 = DATE_TIME_ROLE ( 'creation_date' ) ;
#142 = PRODUCT_DEFINITION ( 'UNKNOWN', '', #74, #205 ) ;
#143 = ADVANCED_BREP_SHAPE_REPRESENTATION ( '339063', ( #129, #124, #49 ), #171 ) ;
#144 = APPLICATION_CONTEXT ( 'configuration controlled 3d designs of mechanical parts and assemblies' ) ;
#145 = TOROIDAL_SURFACE ( 'NONE', #135, 9.000000000000001776, 0.9999999999999988898 ) ;
#146 = PERSON_AND_ORGANIZATION ( #221, #254 ) ;
#147 = CC_DESIGN_PERSON_AND_ORGANIZATION_ASSIGNMENT ( #92, #261, ( #89 ) ) ;
#148 = FACE_OUTER_BOUND ( 'NONE', #228, .T. ) ;
#149 = EDGE_LOOP ( 'NONE', ( #2 ) ) ;
#150 = DIRECTION ( 'NONE',  ( 3.491481338843133355E-15, -0.0000000000000000000, 1.000000000000000000 ) ) ;
#151 = CC_DESIGN_PERSON_AND_ORGANIZATION_ASSIGNMENT ( #201, #26, ( #74 ) ) ;
#152 = CARTESIAN_POINT ( 'NONE',  ( 3.561310965619995265E-13, 9.999999999999968026, 101.9999999999999858 ) ) ;
#153 = EDGE_LOOP ( 'NONE', ( #47 ) ) ;
#154 = PLANE ( 'NONE',  #113 ) ;
#155 = AXIS2_PLACEMENT_3D ( 'NONE', #43, #199, #51 ) ;
#156 = CYLINDRICAL_SURFACE ( 'NONE', #121, 9.999999999999989342 ) ;
#157 = CARTESIAN_POINT ( 'NONE',  ( 0.0000000000000000000, 0.0000000000000000000, 0.0000000000000000000 ) ) ;
#158 = DIRECTION ( 'NONE',  ( -3.491481338843133355E-15, 0.0000000000000000000, -1.000000000000000000 ) ) ;
#159 = ORIENTED_EDGE ( 'NONE', *, *, #240, .F. ) ;
#160 = PERSON_AND_ORGANIZATION ( #221, #254 ) ;
#161 = LOCAL_TIME ( 11, 46, 18.00000000000000000, #13 ) ;
#162 = PLANE ( 'NONE',  #238 ) ;
#163 = DATE_AND_TIME ( #97, #161 ) ;
#164 = DIRECTION ( 'NONE',  ( 3.491481338843133355E-15, -0.0000000000000000000, 1.000000000000000000 ) ) ;
#165 = DATE_AND_TIME ( #99, #42 ) ;
#166 = FACE_OUTER_BOUND ( 'NONE', #5, .T. ) ;
#167 = ORIENTED_EDGE ( 'NONE', *, *, #94, .T. ) ;
#168 = FACE_BOUND ( 'NONE', #95, .T. ) ;
#169 = ORIENTED_EDGE ( 'NONE', *, *, #56, .F. ) ;
#170 = CC_DESIGN_PERSON_AND_ORGANIZATION_ASSIGNMENT ( #160, #67, ( #142 ) ) ;
#171 =( GEOMETRIC_REPRESENTATION_CONTEXT ( 3 ) GLOBAL_UNCERTAINTY_ASSIGNED_CONTEXT ( ( #252 ) ) GLOBAL_UNIT_ASSIGNED_CONTEXT ( ( #244, #93, #118 ) ) REPRESENTATION_CONTEXT ( 'NONE', 'WORKASPACE' ) );
#172 = DIRECTION ( 'NONE',  ( 4.275831445896958607E-31, 1.000000000000000000, 1.224646799147353454E-16 ) ) ;
#173 = ORIENTED_EDGE ( 'NONE', *, *, #37, .T. ) ;
#174 = PRODUCT_RELATED_PRODUCT_CATEGORY ( 'detail', '', ( #77 ) ) ;
#175 = CARTESIAN_POINT ( 'NONE',  ( 3.491481338843131778E-15, 0.0000000000000000000, 0.9999999999999995559 ) ) ;
#176 = DIRECTION ( 'NONE',  ( -3.491481338843133355E-15, 1.224646799147353454E-16, -1.000000000000000000 ) ) ;
#177 = CARTESIAN_POINT ( 'NONE',  ( 0.0000000000000000000, 0.0000000000000000000, 0.0000000000000000000 ) ) ;
#178 = PERSON_AND_ORGANIZATION ( #221, #254 ) ;
#179 = VERTEX_POINT ( 'NONE', #235 ) ;
#180 = APPROVAL_STATUS ( 'not_yet_approved' ) ;
#181 = CC_DESIGN_PERSON_AND_ORGANIZATION_ASSIGNMENT ( #78, #30, ( #77 ) ) ;
#182 = APPROVAL_ROLE ( '' ) ;
#183 = DIRECTION ( 'NONE',  ( 0.0000000000000000000, 1.000000000000000000, 0.0000000000000000000 ) ) ;
#184 = DIRECTION ( 'NONE',  ( 3.491481338843133355E-15, -1.224646799147353454E-16, 1.000000000000000000 ) ) ;
#185 = EDGE_LOOP ( 'NONE', ( #226 ) ) ;
#186 = DIRECTION ( 'NONE',  ( 1.000000000000000000, 0.0000000000000000000, 0.0000000000000000000 ) ) ;
#187 = AXIS2_PLACEMENT_3D ( 'NONE', #217, #140, #33 ) ;
#188 = EDGE_LOOP ( 'NONE', ( #66 ) ) ;
#189 = APPROVAL_STATUS ( 'not_yet_approved' ) ;
#190 = ADVANCED_FACE ( 'NONE', ( #109 ), #131, .F. ) ;
#191 = CYLINDRICAL_SURFACE ( 'NONE', #246, 9.500000000000000000 ) ;
#192 = APPROVAL_PERSON_ORGANIZATION ( #146, #255, #3 ) ;
#193 = DIRECTION ( 'NONE',  ( -3.491481338843133355E-15, 1.224646799147353454E-16, -1.000000000000000000 ) ) ;
#194 = DIRECTION ( 'NONE',  ( -3.491481338843133355E-15, 1.224646799147353454E-16, -1.000000000000000000 ) ) ;
#195 = CARTESIAN_POINT ( 'NONE',  ( 1.326762908760390423E-13, 9.999999999999994671, 38.00000000000000000 ) ) ;
#196 = ADVANCED_FACE ( 'NONE', ( #166, #14 ), #191, .T. ) ;
#197 = ORIENTED_EDGE ( 'NONE', *, *, #94, .F. ) ;
#198 = PERSON_AND_ORGANIZATION_ROLE ( 'design_supplier' ) ;
#199 = DIRECTION ( 'NONE',  ( 3.491481338843133355E-15, -0.0000000000000000000, 1.000000000000000000 ) ) ;
#200 = CIRCLE ( 'NONE', #218, 10.00000000000000000 ) ;
#201 = PERSON_AND_ORGANIZATION ( #221, #254 ) ;
#202 = LOCAL_TIME ( 11, 46, 18.00000000000000000, #220 ) ;
#203 = CLOSED_SHELL ( 'NONE', ( #245, #262, #225, #29 ) ) ;
#204 = AXIS2_PLACEMENT_3D ( 'NONE', #88, #39, #65 ) ;
#205 = DESIGN_CONTEXT ( 'detailed design', #144, 'design' ) ;
#206 = FACE_OUTER_BOUND ( 'NONE', #133, .T. ) ;
#207 = PLANE ( 'NONE',  #204 ) ;
#208 = CARTESIAN_POINT ( 'NONE',  ( 9.500000000000174083, 0.0000000000000000000, 49.99999999999997158 ) ) ;
#209 = CIRCLE ( 'NONE', #258, 9.500000000000000000 ) ;
#210 = SHAPE_DEFINITION_REPRESENTATION ( #232, #143 ) ;
#211 = DIRECTION ( 'NONE',  ( 0.0000000000000000000, 1.000000000000000000, 0.0000000000000000000 ) ) ;
#212 = VERTEX_POINT ( 'NONE', #110 ) ;
#213 = APPROVAL_DATE_TIME ( #22, #31 ) ;
#214 = CARTESIAN_POINT ( 'NONE',  ( -9.999999999999815259, -6.123233995736767663E-15, 50.00000000000003553 ) ) ;
#215 = ADVANCED_FACE ( 'NONE', ( #148, #223 ), #154, .T. ) ;
#216 = APPROVAL_DATE_TIME ( #123, #19 ) ;
#217 = CARTESIAN_POINT ( 'NONE',  ( 3.631140592396858185E-13, 1.759529233115088444E-30, 103.9999999999999858 ) ) ;
#218 = AXIS2_PLACEMENT_3D ( 'NONE', #70, #193, #211 ) ;
#219 = CALENDAR_DATE ( 2021, 18, 11 ) ;
#220 = COORDINATED_UNIVERSAL_TIME_OFFSET ( 1, 0, .AHEAD. ) ;
#221 = PERSON ( 'UNSPECIFIED', 'UNSPECIFIED', 'UNSPECIFIED', ('UNSPECIFIED'), ('UNSPECIFIED'), ('UNSPECIFIED') ) ;
#222 = CC_DESIGN_DATE_AND_TIME_ASSIGNMENT ( #165, #134, ( #89 ) ) ;
#223 = FACE_BOUND ( 'NONE', #84, .T. ) ;
#224 = MECHANICAL_CONTEXT ( 'NONE', #9, 'mechanical' ) ;
#225 = ADVANCED_FACE ( 'NONE', ( #206, #4 ), #145, .T. ) ;
#226 = ORIENTED_EDGE ( 'NONE', *, *, #48, .T. ) ;
#227 = EDGE_LOOP ( 'NONE', ( #62 ) ) ;
#228 = EDGE_LOOP ( 'NONE', ( #250 ) ) ;
#229 = LOCAL_TIME ( 11, 46, 18.00000000000000000, #242 ) ;
#230 = DIRECTION ( 'NONE',  ( 1.000000000000000000, 0.0000000000000000000, -3.652049423109067235E-15 ) ) ;
#231 = AXIS2_PLACEMENT_3D ( 'NONE', #239, #236, #259 ) ;
#232 = PRODUCT_DEFINITION_SHAPE ( 'NONE', 'NONE',  #142 ) ;
#233 = FACE_OUTER_BOUND ( 'NONE', #38, .T. ) ;
#234 = DIRECTION ( 'NONE',  ( 4.275831445896960358E-31, 1.000000000000000000, 1.224646799147353454E-16 ) ) ;
#235 = CARTESIAN_POINT ( 'NONE',  ( 10.00000000000000178, 0.0000000000000000000, 0.9999999999999646949 ) ) ;
#236 = DIRECTION ( 'NONE',  ( -3.491481338843133355E-15, 1.224646799147353454E-16, -1.000000000000000000 ) ) ;
#237 = CC_DESIGN_APPROVAL ( #31, ( #89 ) ) ;
#238 = AXIS2_PLACEMENT_3D ( 'NONE', #10, #117, #71 ) ;
#239 = CARTESIAN_POINT ( 'NONE',  ( 3.561310965619995265E-13, -1.249139735130300247E-14, 101.9999999999999858 ) ) ;
#240 = EDGE_CURVE ( 'NONE', #132, #132, #251, .T. ) ;
#241 = DIRECTION ( 'NONE',  ( 0.0000000000000000000, 1.000000000000000000, 0.0000000000000000000 ) ) ;
#242 = COORDINATED_UNIVERSAL_TIME_OFFSET ( 1, 0, .AHEAD. ) ;
#243 = CC_DESIGN_APPROVAL ( #255, ( #142 ) ) ;
#244 =( LENGTH_UNIT ( ) NAMED_UNIT ( * ) SI_UNIT ( .MILLI., .METRE. ) );
#245 = ADVANCED_FACE ( 'NONE', ( #45, #82 ), #83, .T. ) ;
#246 = AXIS2_PLACEMENT_3D ( 'NONE', #81, #260, #101 ) ;
#247 = AXIS2_PLACEMENT_3D ( 'NONE', #1, #150, #79 ) ;
#248 = EDGE_LOOP ( 'NONE', ( #197 ) ) ;
#249 = FACE_OUTER_BOUND ( 'NONE', #40, .T. ) ;
#250 = ORIENTED_EDGE ( 'NONE', *, *, #48, .F. ) ;
#251 = CIRCLE ( 'NONE', #104, 9.500000000000000000 ) ;
#252 = UNCERTAINTY_MEASURE_WITH_UNIT (LENGTH_MEASURE( 1.000000000000000082E-05 ), #244, 'distance_accuracy_value', 'NONE');
#253 = VERTEX_POINT ( 'NONE', #136 ) ;
#254 = ORGANIZATION ( 'UNSPECIFIED', 'UNSPECIFIED', '' ) ;
#255 = APPROVAL ( #189, 'UNSPECIFIED' ) ;
#256 = FACE_OUTER_BOUND ( 'NONE', #153, .T. ) ;
#257 = CC_DESIGN_APPROVAL ( #19, ( #74 ) ) ;
#258 = AXIS2_PLACEMENT_3D ( 'NONE', #98, #164, #60 ) ;
#259 = DIRECTION ( 'NONE',  ( 0.0000000000000000000, 1.000000000000000000, 0.0000000000000000000 ) ) ;
#260 = DIRECTION ( 'NONE',  ( 3.491481338843133355E-15, -0.0000000000000000000, 1.000000000000000000 ) ) ;
#261 = PERSON_AND_ORGANIZATION_ROLE ( 'classification_officer' ) ;
#262 = ADVANCED_FACE ( 'NONE', ( #233 ), #207, .T. ) ;
#263 = CIRCLE ( 'NONE', #155, 9.999999999999989342 ) ;
ENDSEC;
END-ISO-10303-21;
