ISO-10303-21;
HEADER;
FILE_DESCRIPTION (( 'STEP AP203' ),
    '1' );
FILE_NAME ('339062.step',
    '2021-11-18T10:46:17',
    ( '' ),
    ( '' ),
    'SwSTEP 2.0',
    'SolidWorks 2019',
    '' );
FILE_SCHEMA (( 'CONFIG_CONTROL_DESIGN' ));
ENDSEC;

DATA;
#1 = CARTESIAN_POINT ( 'NONE',  ( 0.0000000000000000000, 0.0000000000000000000, 0.0000000000000000000 ) ) ;
#2 = CARTESIAN_POINT ( 'NONE',  ( 1.396592535537253027E-14, 0.0000000000000000000, 3.999999999999999112 ) ) ;
#3 = CC_DESIGN_DATE_AND_TIME_ASSIGNMENT ( #99, #142, ( #28 ) ) ;
#4 = EDGE_LOOP ( 'NONE', ( #63 ) ) ;
#5 = EDGE_LOOP ( 'NONE', ( #79 ) ) ;
#6 = VERTEX_POINT ( 'NONE', #102 ) ;
#7 =( GEOMETRIC_REPRESENTATION_CONTEXT ( 3 ) GLOBAL_UNCERTAINTY_ASSIGNED_CONTEXT ( ( #55 ) ) GLOBAL_UNIT_ASSIGNED_CONTEXT ( ( #56, #37, #227 ) ) REPRESENTATION_CONTEXT ( 'NONE', 'WORKASPACE' ) );
#8 = DIRECTION ( 'NONE',  ( 0.0000000000000000000, 1.000000000000000000, 0.0000000000000000000 ) ) ;
#9 = DIRECTION ( 'NONE',  ( -3.491481338843133355E-15, 0.0000000000000000000, -1.000000000000000000 ) ) ;
#10 = EDGE_LOOP ( 'NONE', ( #92 ) ) ;
#11 = AXIS2_PLACEMENT_3D ( 'NONE', #241, #195, #67 ) ;
#12 = EDGE_LOOP ( 'NONE', ( #76 ) ) ;
#13 = DIRECTION ( 'NONE',  ( 3.491481338843133355E-15, -0.0000000000000000000, 1.000000000000000000 ) ) ;
#14 = SECURITY_CLASSIFICATION_LEVEL ( 'unclassified' ) ;
#15 = DIRECTION ( 'NONE',  ( 3.491481338843133355E-15, -1.224646799147353207E-16, 1.000000000000000000 ) ) ;
#16 = PERSON_AND_ORGANIZATION_ROLE ( 'classification_officer' ) ;
#17 = PLANE ( 'NONE',  #46 ) ;
#18 = ORIENTED_EDGE ( 'NONE', *, *, #112, .T. ) ;
#19 = APPROVAL_PERSON_ORGANIZATION ( #194, #250, #170 ) ;
#20 = EDGE_CURVE ( 'NONE', #218, #218, #197, .T. ) ;
#21 = ORIENTED_EDGE ( 'NONE', *, *, #32, .F. ) ;
#22 = DATE_TIME_ROLE ( 'creation_date' ) ;
#23 = DATE_AND_TIME ( #127, #229 ) ;
#24 = AXIS2_PLACEMENT_3D ( 'NONE', #26, #113, #217 ) ;
#25 = FACE_BOUND ( 'NONE', #188, .T. ) ;
#26 = CARTESIAN_POINT ( 'NONE',  ( 3.212162831735682182E-13, -1.126675055215564941E-14, 92.00000000000000000 ) ) ;
#27 = EDGE_LOOP ( 'NONE', ( #58 ) ) ;
#28 = SECURITY_CLASSIFICATION ( '', '', #14 ) ;
#29 = EDGE_LOOP ( 'NONE', ( #21 ) ) ;
#30 = APPROVAL_DATE_TIME ( #49, #104 ) ;
#31 = FACE_OUTER_BOUND ( 'NONE', #29, .T. ) ;
#32 = EDGE_CURVE ( 'NONE', #245, #245, #190, .T. ) ;
#33 = VERTEX_POINT ( 'NONE', #51 ) ;
#34 = PRODUCT_RELATED_PRODUCT_CATEGORY ( 'detail', '', ( #90 ) ) ;
#35 = EDGE_LOOP ( 'NONE', ( #223 ) ) ;
#36 = ORIENTED_EDGE ( 'NONE', *, *, #154, .T. ) ;
#37 =( NAMED_UNIT ( * ) PLANE_ANGLE_UNIT ( ) SI_UNIT ( $, .RADIAN. ) );
#38 = LOCAL_TIME ( 11, 46, 17.00000000000000000, #205 ) ;
#39 = PERSON_AND_ORGANIZATION ( #189, #181 ) ;
#40 = EDGE_LOOP ( 'NONE', ( #84 ) ) ;
#41 = FACE_OUTER_BOUND ( 'NONE', #12, .T. ) ;
#42 = CC_DESIGN_PERSON_AND_ORGANIZATION_ASSIGNMENT ( #179, #199, ( #74 ) ) ;
#43 = FACE_OUTER_BOUND ( 'NONE', #4, .T. ) ;
#44 = DIRECTION ( 'NONE',  ( 3.491481338843133355E-15, -0.0000000000000000000, 1.000000000000000000 ) ) ;
#45 = DIRECTION ( 'NONE',  ( -3.491481338843133355E-15, 1.224646799147353207E-16, -1.000000000000000000 ) ) ;
#46 = AXIS2_PLACEMENT_3D ( 'NONE', #94, #202, #75 ) ;
#47 = DIRECTION ( 'NONE',  ( -1.000000000000000000, 0.0000000000000000000, 3.469446951953614978E-15 ) ) ;
#48 = APPLICATION_PROTOCOL_DEFINITION ( 'international standard', 'config_control_design', 1994, #126 ) ;
#49 = DATE_AND_TIME ( #163, #184 ) ;
#50 = ADVANCED_FACE ( 'NONE', ( #211 ), #116, .T. ) ;
#51 = CARTESIAN_POINT ( 'NONE',  ( 7.500000000000146549, 0.0000000000000000000, 41.99999999999997158 ) ) ;
#52 = ADVANCED_BREP_SHAPE_REPRESENTATION ( '339062', ( #125, #216, #139 ), #7 ) ;
#53 = DIRECTION ( 'NONE',  ( 3.491481338843133355E-15, -0.0000000000000000000, 1.000000000000000000 ) ) ;
#54 = CC_DESIGN_PERSON_AND_ORGANIZATION_ASSIGNMENT ( #117, #200, ( #74 ) ) ;
#55 = UNCERTAINTY_MEASURE_WITH_UNIT (LENGTH_MEASURE( 1.000000000000000082E-05 ), #56, 'distance_accuracy_value', 'NONE');
#56 =( LENGTH_UNIT ( ) NAMED_UNIT ( * ) SI_UNIT ( .MILLI., .METRE. ) );
#57 = CARTESIAN_POINT ( 'NONE',  ( 1.117274028429802674E-13, 7.999999999999996447, 32.00000000000000000 ) ) ;
#58 = ORIENTED_EDGE ( 'NONE', *, *, #154, .F. ) ;
#59 = CIRCLE ( 'NONE', #11, 7.500000000000000000 ) ;
#60 = CC_DESIGN_APPROVAL ( #104, ( #74 ) ) ;
#61 = EDGE_LOOP ( 'NONE', ( #147 ) ) ;
#62 = COORDINATED_UNIVERSAL_TIME_OFFSET ( 1, 0, .AHEAD. ) ;
#63 = ORIENTED_EDGE ( 'NONE', *, *, #112, .F. ) ;
#64 = EDGE_CURVE ( 'NONE', #72, #72, #208, .T. ) ;
#65 = FACE_OUTER_BOUND ( 'NONE', #40, .T. ) ;
#66 = CARTESIAN_POINT ( 'NONE',  ( 0.0000000000000000000, 0.0000000000000000000, 0.0000000000000000000 ) ) ;
#67 = DIRECTION ( 'NONE',  ( 1.000000000000000000, 0.0000000000000000000, -3.700743415417188731E-15 ) ) ;
#68 = DIRECTION ( 'NONE',  ( 3.491481338843133355E-15, -0.0000000000000000000, 1.000000000000000000 ) ) ;
#69 = AXIS2_PLACEMENT_3D ( 'NONE', #177, #171, #106 ) ;
#70 = CARTESIAN_POINT ( 'NONE',  ( 3.212162831735682182E-13, 6.399999999999995914, 92.00000000000000000 ) ) ;
#71 = PERSON_AND_ORGANIZATION_ROLE ( 'design_owner' ) ;
#72 = VERTEX_POINT ( 'NONE', #96 ) ;
#73 = AXIS2_PLACEMENT_3D ( 'NONE', #259, #13, #47 ) ;
#74 = PRODUCT_DEFINITION_FORMATION_WITH_SPECIFIED_SOURCE ( 'ANY', '', #90, .NOT_KNOWN. ) ;
#75 = DIRECTION ( 'NONE',  ( -4.275831445896958607E-31, -1.000000000000000000, -1.224646799147353207E-16 ) ) ;
#76 = ORIENTED_EDGE ( 'NONE', *, *, #64, .F. ) ;
#77 = AXIS2_PLACEMENT_3D ( 'NONE', #165, #53, #220 ) ;
#78 = VERTEX_POINT ( 'NONE', #57 ) ;
#79 = ORIENTED_EDGE ( 'NONE', *, *, #185, .F. ) ;
#80 = ORIENTED_EDGE ( 'NONE', *, *, #20, .T. ) ;
#81 = APPROVAL_STATUS ( 'not_yet_approved' ) ;
#82 = CLOSED_SHELL ( 'NONE', ( #262, #124, #145, #212, #187, #244 ) ) ;
#83 = CC_DESIGN_PERSON_AND_ORGANIZATION_ASSIGNMENT ( #261, #16, ( #28 ) ) ;
#84 = ORIENTED_EDGE ( 'NONE', *, *, #32, .T. ) ;
#85 = APPROVAL_STATUS ( 'not_yet_approved' ) ;
#86 = DIRECTION ( 'NONE',  ( 1.000000000000000000, 0.0000000000000000000, 0.0000000000000000000 ) ) ;
#87 = CARTESIAN_POINT ( 'NONE',  ( -1.710332578358783092E-30, 5.999039130647430431E-32, -4.898587196589412829E-16 ) ) ;
#88 = DIRECTION ( 'NONE',  ( -3.491481338843133355E-15, 1.224646799147353207E-16, -1.000000000000000000 ) ) ;
#89 = COORDINATED_UNIVERSAL_TIME_OFFSET ( 1, 0, .AHEAD. ) ;
#90 = PRODUCT ( '339062', '339062', '', ( #151 ) ) ;
#91 = CIRCLE ( 'NONE', #168, 4.000000000000000888 ) ;
#92 = ORIENTED_EDGE ( 'NONE', *, *, #167, .T. ) ;
#93 = CARTESIAN_POINT ( 'NONE',  ( 3.212162831735682182E-13, 4.799231304517932850E-32, 92.00000000000000000 ) ) ;
#94 = CARTESIAN_POINT ( 'NONE',  ( 1.117274028429802674E-13, 5.999039130647424958E-32, 32.00000000000000000 ) ) ;
#95 = DIRECTION ( 'NONE',  ( 1.000000000000000000, 0.0000000000000000000, -3.491481338843133355E-15 ) ) ;
#96 = CARTESIAN_POINT ( 'NONE',  ( -7.999999999999850786, -5.143516556418883322E-15, 42.00000000000002842 ) ) ;
#97 = PRODUCT_DEFINITION ( 'UNKNOWN', '', #74, #221 ) ;
#98 = AXIS2_PLACEMENT_3D ( 'NONE', #155, #88, #193 ) ;
#99 = DATE_AND_TIME ( #121, #38 ) ;
#100 = ORIENTED_EDGE ( 'NONE', *, *, #64, .T. ) ;
#101 = AXIS2_PLACEMENT_3D ( 'NONE', #2, #180, #95 ) ;
#102 = CARTESIAN_POINT ( 'NONE',  ( 8.000000000000014211, 0.0000000000000000000, 3.999999999999971578 ) ) ;
#103 = ORIENTED_EDGE ( 'NONE', *, *, #247, .T. ) ;
#104 = APPROVAL ( #85, 'UNSPECIFIED' ) ;
#105 = DIRECTION ( 'NONE',  ( 0.0000000000000000000, 0.0000000000000000000, 1.000000000000000000 ) ) ;
#106 = DIRECTION ( 'NONE',  ( 1.000000000000000000, 0.0000000000000000000, -3.700743415417188731E-15 ) ) ;
#107 = PERSON_AND_ORGANIZATION ( #189, #181 ) ;
#108 = PERSON_AND_ORGANIZATION ( #189, #181 ) ;
#109 = CONICAL_SURFACE ( 'NONE', #114, 7.999999999999996447, 0.7853981633974480570 ) ;
#110 = PLANE ( 'NONE',  #263 ) ;
#111 = FACE_OUTER_BOUND ( 'NONE', #248, .T. ) ;
#112 = EDGE_CURVE ( 'NONE', #33, #33, #59, .T. ) ;
#113 = DIRECTION ( 'NONE',  ( -3.491481338843133355E-15, 1.224646799147353207E-16, -1.000000000000000000 ) ) ;
#114 = AXIS2_PLACEMENT_3D ( 'NONE', #129, #45, #213 ) ;
#115 = LOCAL_TIME ( 11, 46, 17.00000000000000000, #62 ) ;
#116 = PLANE ( 'NONE',  #130 ) ;
#117 = PERSON_AND_ORGANIZATION ( #189, #181 ) ;
#118 = CYLINDRICAL_SURFACE ( 'NONE', #246, 7.999999999999998224 ) ;
#119 = ADVANCED_FACE ( 'NONE', ( #156, #149 ), #237, .T. ) ;
#120 = PLANE ( 'NONE',  #242 ) ;
#121 = CALENDAR_DATE ( 2021, 18, 11 ) ;
#122 = EDGE_LOOP ( 'NONE', ( #103 ) ) ;
#123 = PERSON_AND_ORGANIZATION ( #189, #181 ) ;
#124 = ADVANCED_FACE ( 'NONE', ( #240, #134 ), #109, .T. ) ;
#125 = MANIFOLD_SOLID_BREP ( 'Corps-Déplacer/Copier1[1]', #82 ) ;
#126 = APPLICATION_CONTEXT ( 'configuration controlled 3d designs of mechanical parts and assemblies' ) ;
#127 = CALENDAR_DATE ( 2021, 18, 11 ) ;
#128 = CALENDAR_DATE ( 2021, 18, 11 ) ;
#129 = CARTESIAN_POINT ( 'NONE',  ( 3.156299130314193058E-13, -1.107080706429207412E-14, 90.40000000000000568 ) ) ;
#130 = AXIS2_PLACEMENT_3D ( 'NONE', #87, #239, #178 ) ;
#131 = CYLINDRICAL_SURFACE ( 'NONE', #249, 7.500000000000000000 ) ;
#132 = DIRECTION ( 'NONE',  ( -3.491481338843133355E-15, 1.224646799147353207E-16, -1.000000000000000000 ) ) ;
#133 = CC_DESIGN_APPROVAL ( #226, ( #28 ) ) ;
#134 = FACE_OUTER_BOUND ( 'NONE', #231, .T. ) ;
#135 = TOROIDAL_SURFACE ( 'NONE', #101, 4.000000000000000000, 4.000000000000000000 ) ;
#136 = DIRECTION ( 'NONE',  ( -3.491481338843133355E-15, 1.224646799147353207E-16, -1.000000000000000000 ) ) ;
#137 = COORDINATED_UNIVERSAL_TIME_OFFSET ( 1, 0, .AHEAD. ) ;
#138 = DIRECTION ( 'NONE',  ( -3.491481338843133355E-15, 1.224646799147353207E-16, -1.000000000000000000 ) ) ;
#139 = AXIS2_PLACEMENT_3D ( 'NONE', #230, #105, #86 ) ;
#140 = VERTEX_POINT ( 'NONE', #183 ) ;
#141 = DIRECTION ( 'NONE',  ( -4.275831445896958607E-31, -1.000000000000000000, -1.224646799147353207E-16 ) ) ;
#142 = DATE_TIME_ROLE ( 'classification_date' ) ;
#143 = CARTESIAN_POINT ( 'NONE',  ( 3.156299130314193058E-13, 7.999999999999986677, 90.40000000000000568 ) ) ;
#144 = ORIENTED_EDGE ( 'NONE', *, *, #247, .F. ) ;
#145 = ADVANCED_FACE ( 'NONE', ( #173 ), #209, .F. ) ;
#146 = AXIS2_PLACEMENT_3D ( 'NONE', #93, #260, #191 ) ;
#147 = ORIENTED_EDGE ( 'NONE', *, *, #20, .F. ) ;
#148 = DATE_AND_TIME ( #176, #153 ) ;
#149 = FACE_OUTER_BOUND ( 'NONE', #35, .T. ) ;
#150 = APPROVAL_ROLE ( '' ) ;
#151 = MECHANICAL_CONTEXT ( 'NONE', #161, 'mechanical' ) ;
#152 = DIRECTION ( 'NONE',  ( 4.275831445896958607E-31, 1.000000000000000000, 1.224646799147353207E-16 ) ) ;
#153 = LOCAL_TIME ( 11, 46, 17.00000000000000000, #89 ) ;
#154 = EDGE_CURVE ( 'NONE', #140, #140, #91, .T. ) ;
#155 = CARTESIAN_POINT ( 'NONE',  ( 1.117274028429802674E-13, -3.918869757271530263E-15, 32.00000000000000000 ) ) ;
#156 = FACE_OUTER_BOUND ( 'NONE', #122, .T. ) ;
#157 = DIRECTION ( 'NONE',  ( 1.000000000000000000, 0.0000000000000000000, -3.491481338843133355E-15 ) ) ;
#158 = CC_DESIGN_DATE_AND_TIME_ASSIGNMENT ( #23, #22, ( #97 ) ) ;
#159 = FACE_OUTER_BOUND ( 'NONE', #5, .T. ) ;
#160 = DIRECTION ( 'NONE',  ( 4.275831445896958607E-31, 1.000000000000000000, 1.224646799147353207E-16 ) ) ;
#161 = APPLICATION_CONTEXT ( 'configuration controlled 3d designs of mechanical parts and assemblies' ) ;
#162 = CARTESIAN_POINT ( 'NONE',  ( 1.117274028429802674E-13, 5.999039130647424958E-32, 32.00000000000000000 ) ) ;
#163 = CALENDAR_DATE ( 2021, 18, 11 ) ;
#164 = APPROVAL_PERSON_ORGANIZATION ( #123, #226, #251 ) ;
#165 = CARTESIAN_POINT ( 'NONE',  ( 1.396592535537253027E-14, 0.0000000000000000000, 3.999999999999999112 ) ) ;
#166 = CIRCLE ( 'NONE', #77, 8.000000000000000000 ) ;
#167 = EDGE_CURVE ( 'NONE', #228, #228, #201, .T. ) ;
#168 = AXIS2_PLACEMENT_3D ( 'NONE', #253, #68, #157 ) ;
#169 = EDGE_LOOP ( 'NONE', ( #80 ) ) ;
#170 = APPROVAL_ROLE ( '' ) ;
#171 = DIRECTION ( 'NONE',  ( 3.491481338843133355E-15, -0.0000000000000000000, 1.000000000000000000 ) ) ;
#172 = DATE_AND_TIME ( #128, #115 ) ;
#173 = FACE_OUTER_BOUND ( 'NONE', #61, .T. ) ;
#174 = APPROVAL_DATE_TIME ( #148, #250 ) ;
#175 = FACE_OUTER_BOUND ( 'NONE', #207, .T. ) ;
#176 = CALENDAR_DATE ( 2021, 18, 11 ) ;
#177 = CARTESIAN_POINT ( 'NONE',  ( 1.117274028429802674E-13, 0.0000000000000000000, 32.00000000000000000 ) ) ;
#178 = DIRECTION ( 'NONE',  ( 4.275831445896958607E-31, 1.000000000000000000, 1.224646799147353207E-16 ) ) ;
#179 = PERSON_AND_ORGANIZATION ( #189, #181 ) ;
#180 = DIRECTION ( 'NONE',  ( 3.491481338843133355E-15, -0.0000000000000000000, 1.000000000000000000 ) ) ;
#181 = ORGANIZATION ( 'UNSPECIFIED', 'UNSPECIFIED', '' ) ;
#182 = FACE_OUTER_BOUND ( 'NONE', #10, .T. ) ;
#183 = CARTESIAN_POINT ( 'NONE',  ( 4.000000000000000888, 0.0000000000000000000, -1.483328709336094012E-14 ) ) ;
#184 = LOCAL_TIME ( 11, 46, 17.00000000000000000, #137 ) ;
#185 = EDGE_CURVE ( 'NONE', #78, #78, #204, .T. ) ;
#186 = CC_DESIGN_SECURITY_CLASSIFICATION ( #28, ( #74 ) ) ;
#187 = ADVANCED_FACE ( 'NONE', ( #41, #25 ), #110, .T. ) ;
#188 = EDGE_LOOP ( 'NONE', ( #18 ) ) ;
#189 = PERSON ( 'UNSPECIFIED', 'UNSPECIFIED', 'UNSPECIFIED', ('UNSPECIFIED'), ('UNSPECIFIED'), ('UNSPECIFIED') ) ;
#190 = CIRCLE ( 'NONE', #69, 7.500000000000000000 ) ;
#191 = DIRECTION ( 'NONE',  ( 4.275831445896958607E-31, 1.000000000000000000, 1.224646799147353207E-16 ) ) ;
#192 = CARTESIAN_POINT ( 'NONE',  ( 1.466422162314116009E-13, 8.999999999999994671, 42.00000000000000000 ) ) ;
#193 = DIRECTION ( 'NONE',  ( 0.0000000000000000000, 1.000000000000000000, 0.0000000000000000000 ) ) ;
#194 = PERSON_AND_ORGANIZATION ( #189, #181 ) ;
#195 = DIRECTION ( 'NONE',  ( 3.491481338843133355E-15, -0.0000000000000000000, 1.000000000000000000 ) ) ;
#196 = SHAPE_DEFINITION_REPRESENTATION ( #257, #52 ) ;
#197 = CIRCLE ( 'NONE', #24, 6.400000000000007461 ) ;
#198 = EDGE_LOOP ( 'NONE', ( #100 ) ) ;
#199 = PERSON_AND_ORGANIZATION_ROLE ( 'design_supplier' ) ;
#200 = PERSON_AND_ORGANIZATION_ROLE ( 'creator' ) ;
#201 = CIRCLE ( 'NONE', #214, 7.999999999999996447 ) ;
#202 = DIRECTION ( 'NONE',  ( 3.491481338843133355E-15, -1.224646799147353207E-16, 1.000000000000000000 ) ) ;
#203 = CC_DESIGN_PERSON_AND_ORGANIZATION_ASSIGNMENT ( #39, #252, ( #97 ) ) ;
#204 = CIRCLE ( 'NONE', #98, 8.000000000000000000 ) ;
#205 = COORDINATED_UNIVERSAL_TIME_OFFSET ( 1, 0, .AHEAD. ) ;
#206 = CC_DESIGN_APPROVAL ( #250, ( #97 ) ) ;
#207 = EDGE_LOOP ( 'NONE', ( #144 ) ) ;
#208 = CIRCLE ( 'NONE', #73, 7.999999999999998224 ) ;
#209 = PLANE ( 'NONE',  #146 ) ;
#210 = DIRECTION ( 'NONE',  ( 1.000000000000000000, 0.0000000000000000000, -3.491481338843133355E-15 ) ) ;
#211 = FACE_OUTER_BOUND ( 'NONE', #27, .T. ) ;
#212 = ADVANCED_FACE ( 'NONE', ( #65, #43 ), #131, .T. ) ;
#213 = DIRECTION ( 'NONE',  ( 0.0000000000000000000, 1.000000000000000000, 0.0000000000000000000 ) ) ;
#214 = AXIS2_PLACEMENT_3D ( 'NONE', #234, #136, #8 ) ;
#215 = APPROVAL_PERSON_ORGANIZATION ( #108, #104, #150 ) ;
#216 = MANIFOLD_SOLID_BREP ( 'Corps-Déplacer/Copier1[2]', #236 ) ;
#217 = DIRECTION ( 'NONE',  ( 0.0000000000000000000, 1.000000000000000000, 0.0000000000000000000 ) ) ;
#218 = VERTEX_POINT ( 'NONE', #70 ) ;
#219 = CARTESIAN_POINT ( 'NONE',  ( 7.500000000000111910, 0.0000000000000000000, 31.99999999999997158 ) ) ;
#220 = DIRECTION ( 'NONE',  ( 1.000000000000000000, 0.0000000000000000000, -3.469446951953614189E-15 ) ) ;
#221 = DESIGN_CONTEXT ( 'detailed design', #126, 'design' ) ;
#222 = AXIS2_PLACEMENT_3D ( 'NONE', #66, #132, #152 ) ;
#223 = ORIENTED_EDGE ( 'NONE', *, *, #185, .T. ) ;
#224 = APPLICATION_PROTOCOL_DEFINITION ( 'international standard', 'config_control_design', 1994, #161 ) ;
#225 = ORIENTED_EDGE ( 'NONE', *, *, #167, .F. ) ;
#226 = APPROVAL ( #81, 'UNSPECIFIED' ) ;
#227 =( NAMED_UNIT ( * ) SI_UNIT ( $, .STERADIAN. ) SOLID_ANGLE_UNIT ( ) );
#228 = VERTEX_POINT ( 'NONE', #143 ) ;
#229 = LOCAL_TIME ( 11, 46, 17.00000000000000000, #233 ) ;
#230 = CARTESIAN_POINT ( 'NONE',  ( 0.0000000000000000000, 0.0000000000000000000, 0.0000000000000000000 ) ) ;
#231 = EDGE_LOOP ( 'NONE', ( #225 ) ) ;
#232 = CC_DESIGN_PERSON_AND_ORGANIZATION_ASSIGNMENT ( #107, #71, ( #90 ) ) ;
#233 = COORDINATED_UNIVERSAL_TIME_OFFSET ( 1, 0, .AHEAD. ) ;
#234 = CARTESIAN_POINT ( 'NONE',  ( 3.156299130314193058E-13, -1.107080706429207412E-14, 90.40000000000000568 ) ) ;
#235 = APPROVAL_STATUS ( 'not_yet_approved' ) ;
#236 = CLOSED_SHELL ( 'NONE', ( #119, #256, #238, #50 ) ) ;
#237 = CYLINDRICAL_SURFACE ( 'NONE', #222, 8.000000000000000000 ) ;
#238 = ADVANCED_FACE ( 'NONE', ( #111, #175 ), #135, .T. ) ;
#239 = DIRECTION ( 'NONE',  ( -3.491481338843133355E-15, 1.224646799147353207E-16, -1.000000000000000000 ) ) ;
#240 = FACE_BOUND ( 'NONE', #169, .T. ) ;
#241 = CARTESIAN_POINT ( 'NONE',  ( 1.466422162314116009E-13, 0.0000000000000000000, 42.00000000000000000 ) ) ;
#242 = AXIS2_PLACEMENT_3D ( 'NONE', #162, #15, #141 ) ;
#243 = FACE_OUTER_BOUND ( 'NONE', #198, .T. ) ;
#244 = ADVANCED_FACE ( 'NONE', ( #31 ), #17, .F. ) ;
#245 = VERTEX_POINT ( 'NONE', #219 ) ;
#246 = AXIS2_PLACEMENT_3D ( 'NONE', #1, #138, #160 ) ;
#247 = EDGE_CURVE ( 'NONE', #6, #6, #166, .T. ) ;
#248 = EDGE_LOOP ( 'NONE', ( #36 ) ) ;
#249 = AXIS2_PLACEMENT_3D ( 'NONE', #258, #44, #210 ) ;
#250 = APPROVAL ( #235, 'UNSPECIFIED' ) ;
#251 = APPROVAL_ROLE ( '' ) ;
#252 = PERSON_AND_ORGANIZATION_ROLE ( 'creator' ) ;
#253 = CARTESIAN_POINT ( 'NONE',  ( -3.028377322213058170E-30, 0.0000000000000000000, -8.673617379884035472E-16 ) ) ;
#254 = APPROVAL_DATE_TIME ( #172, #226 ) ;
#255 = DIRECTION ( 'NONE',  ( -1.000000000000000000, 0.0000000000000000000, 3.491481338843133355E-15 ) ) ;
#256 = ADVANCED_FACE ( 'NONE', ( #159 ), #120, .T. ) ;
#257 = PRODUCT_DEFINITION_SHAPE ( 'NONE', 'NONE',  #97 ) ;
#258 = CARTESIAN_POINT ( 'NONE',  ( -1.282749433769087757E-30, 0.0000000000000000000, -3.673940397442059868E-16 ) ) ;
#259 = CARTESIAN_POINT ( 'NONE',  ( 1.466422162314116009E-13, -5.143516556418883322E-15, 42.00000000000000000 ) ) ;
#260 = DIRECTION ( 'NONE',  ( -3.491481338843133355E-15, 1.224646799147353207E-16, -1.000000000000000000 ) ) ;
#261 = PERSON_AND_ORGANIZATION ( #189, #181 ) ;
#262 = ADVANCED_FACE ( 'NONE', ( #182, #243 ), #118, .T. ) ;
#263 = AXIS2_PLACEMENT_3D ( 'NONE', #192, #9, #255 ) ;
ENDSEC;
END-ISO-10303-21;
