ISO-10303-21;
HEADER;
FILE_DESCRIPTION (( 'STEP AP203' ),
    '1' );
FILE_NAME ('339061.step',
    '2021-11-18T10:46:17',
    ( '' ),
    ( '' ),
    'SwSTEP 2.0',
    'SolidWorks 2019',
    '' );
FILE_SCHEMA (( 'CONFIG_CONTROL_DESIGN' ));
ENDSEC;

DATA;
#1 = PERSON_AND_ORGANIZATION ( #96, #35 ) ;
#2 = APPROVAL_ROLE ( '' ) ;
#3 = CIRCLE ( 'NONE', #19, 7.500000000000000000 ) ;
#4 = EDGE_LOOP ( 'NONE', ( #94 ) ) ;
#5 = FACE_BOUND ( 'NONE', #23, .T. ) ;
#6 = EDGE_CURVE ( 'NONE', #178, #178, #168, .T. ) ;
#7 = CARTESIAN_POINT ( 'NONE',  ( -1.282749433769087757E-30, 0.0000000000000000000, -3.673940397442059868E-16 ) ) ;
#8 = DIRECTION ( 'NONE',  ( -4.275831445896958607E-31, -1.000000000000000000, -1.224646799147353207E-16 ) ) ;
#9 = CARTESIAN_POINT ( 'NONE',  ( 1.047444401652939691E-14, 0.0000000000000000000, 2.999999999999999112 ) ) ;
#10 = AXIS2_PLACEMENT_3D ( 'NONE', #187, #247, #83 ) ;
#11 = CARTESIAN_POINT ( 'NONE',  ( 5.000000000000000000, 0.0000000000000000000, -1.832476843220407032E-14 ) ) ;
#12 = DIRECTION ( 'NONE',  ( 1.000000000000000000, 0.0000000000000000000, -3.700743415417188731E-15 ) ) ;
#13 = AXIS2_PLACEMENT_3D ( 'NONE', #124, #160, #58 ) ;
#14 = PERSON_AND_ORGANIZATION ( #96, #35 ) ;
#15 = CARTESIAN_POINT ( 'NONE',  ( 3.156299130314193058E-13, -1.107080706429207412E-14, 90.40000000000000568 ) ) ;
#16 = COORDINATED_UNIVERSAL_TIME_OFFSET ( 1, 0, .AHEAD. ) ;
#17 = PLANE ( 'NONE',  #191 ) ;
#18 = DATE_AND_TIME ( #182, #236 ) ;
#19 = AXIS2_PLACEMENT_3D ( 'NONE', #138, #120, #12 ) ;
#20 = DATE_AND_TIME ( #60, #186 ) ;
#21 = DIRECTION ( 'NONE',  ( -4.275831445896958607E-31, -1.000000000000000000, -1.224646799147353207E-16 ) ) ;
#22 = APPLICATION_CONTEXT ( 'configuration controlled 3d designs of mechanical parts and assemblies' ) ;
#23 = EDGE_LOOP ( 'NONE', ( #156 ) ) ;
#24 = FACE_OUTER_BOUND ( 'NONE', #254, .T. ) ;
#25 = LOCAL_TIME ( 11, 46, 17.00000000000000000, #16 ) ;
#26 = DIRECTION ( 'NONE',  ( 0.0000000000000000000, 1.000000000000000000, 0.0000000000000000000 ) ) ;
#27 = CARTESIAN_POINT ( 'NONE',  ( 1.047444401652939691E-14, 0.0000000000000000000, 2.999999999999999112 ) ) ;
#28 = ORIENTED_EDGE ( 'NONE', *, *, #121, .T. ) ;
#29 = AXIS2_PLACEMENT_3D ( 'NONE', #115, #30, #51 ) ;
#30 = DIRECTION ( 'NONE',  ( -3.491481338843133355E-15, 1.224646799147353207E-16, -1.000000000000000000 ) ) ;
#31 = APPROVAL ( #82, 'UNSPECIFIED' ) ;
#32 = DIRECTION ( 'NONE',  ( 4.275831445896958607E-31, 1.000000000000000000, 1.224646799147353207E-16 ) ) ;
#33 = VERTEX_POINT ( 'NONE', #50 ) ;
#34 = DIRECTION ( 'NONE',  ( 1.000000000000000000, 0.0000000000000000000, -3.469446951953614189E-15 ) ) ;
#35 = ORGANIZATION ( 'UNSPECIFIED', 'UNSPECIFIED', '' ) ;
#36 = VERTEX_POINT ( 'NONE', #11 ) ;
#37 = AXIS2_PLACEMENT_3D ( 'NONE', #27, #189, #34 ) ;
#38 = PERSON_AND_ORGANIZATION ( #96, #35 ) ;
#39 = DIRECTION ( 'NONE',  ( 4.275831445896958607E-31, 1.000000000000000000, 1.224646799147353207E-16 ) ) ;
#40 = PRODUCT ( '339061', '339061', '', ( #81 ) ) ;
#41 = PERSON_AND_ORGANIZATION ( #96, #35 ) ;
#42 = PERSON_AND_ORGANIZATION ( #96, #35 ) ;
#43 = EDGE_CURVE ( 'NONE', #157, #157, #152, .T. ) ;
#44 = CIRCLE ( 'NONE', #102, 5.000000000000000000 ) ;
#45 = EDGE_LOOP ( 'NONE', ( #112 ) ) ;
#46 = ORIENTED_EDGE ( 'NONE', *, *, #114, .T. ) ;
#47 = ORIENTED_EDGE ( 'NONE', *, *, #121, .F. ) ;
#48 = FACE_OUTER_BOUND ( 'NONE', #250, .T. ) ;
#49 = AXIS2_PLACEMENT_3D ( 'NONE', #165, #130, #21 ) ;
#50 = CARTESIAN_POINT ( 'NONE',  ( -7.999999999999850786, -5.143516556418883322E-15, 42.00000000000002842 ) ) ;
#51 = DIRECTION ( 'NONE',  ( 0.0000000000000000000, 1.000000000000000000, 0.0000000000000000000 ) ) ;
#52 = CARTESIAN_POINT ( 'NONE',  ( 1.117274028429802674E-13, 0.0000000000000000000, 32.00000000000000000 ) ) ;
#53 = CONICAL_SURFACE ( 'NONE', #231, 7.999999999999996447, 0.7853981633974480570 ) ;
#54 = ADVANCED_FACE ( 'NONE', ( #111 ), #150, .F. ) ;
#55 = DIRECTION ( 'NONE',  ( 1.000000000000000000, 0.0000000000000000000, -3.491481338843133355E-15 ) ) ;
#56 = DIRECTION ( 'NONE',  ( 3.491481338843133355E-15, -0.0000000000000000000, 1.000000000000000000 ) ) ;
#57 = DIRECTION ( 'NONE',  ( 0.0000000000000000000, 1.000000000000000000, 0.0000000000000000000 ) ) ;
#58 = DIRECTION ( 'NONE',  ( 1.000000000000000000, 0.0000000000000000000, 0.0000000000000000000 ) ) ;
#59 = APPROVAL_PERSON_ORGANIZATION ( #1, #31, #240 ) ;
#60 = CALENDAR_DATE ( 2021, 18, 11 ) ;
#61 = PERSON_AND_ORGANIZATION_ROLE ( 'design_owner' ) ;
#62 = EDGE_CURVE ( 'NONE', #179, #179, #78, .T. ) ;
#63 = DIRECTION ( 'NONE',  ( -3.491481338843133355E-15, 1.224646799147353207E-16, -1.000000000000000000 ) ) ;
#64 = CIRCLE ( 'NONE', #200, 7.999999999999996447 ) ;
#65 = DIRECTION ( 'NONE',  ( 0.0000000000000000000, 1.000000000000000000, 0.0000000000000000000 ) ) ;
#66 = CC_DESIGN_DATE_AND_TIME_ASSIGNMENT ( #20, #142, ( #131 ) ) ;
#67 = PRODUCT_DEFINITION_FORMATION_WITH_SPECIFIED_SOURCE ( 'ANY', '', #40, .NOT_KNOWN. ) ;
#68 = DIRECTION ( 'NONE',  ( -3.491481338843133355E-15, 1.224646799147353207E-16, -1.000000000000000000 ) ) ;
#69 = APPLICATION_CONTEXT ( 'configuration controlled 3d designs of mechanical parts and assemblies' ) ;
#70 = EDGE_LOOP ( 'NONE', ( #252 ) ) ;
#71 = CARTESIAN_POINT ( 'NONE',  ( 1.117274028429802674E-13, 5.999039130647424958E-32, 32.00000000000000000 ) ) ;
#72 = EDGE_LOOP ( 'NONE', ( #47 ) ) ;
#73 = AXIS2_PLACEMENT_3D ( 'NONE', #9, #56, #75 ) ;
#74 = DIRECTION ( 'NONE',  ( -3.491481338843133355E-15, 0.0000000000000000000, -1.000000000000000000 ) ) ;
#75 = DIRECTION ( 'NONE',  ( 1.000000000000000000, 0.0000000000000000000, -3.491481338843133355E-15 ) ) ;
#76 = ADVANCED_FACE ( 'NONE', ( #190, #48 ), #192, .T. ) ;
#77 = CARTESIAN_POINT ( 'NONE',  ( -3.028377322213058170E-30, 0.0000000000000000000, -8.673617379884035472E-16 ) ) ;
#78 = CIRCLE ( 'NONE', #29, 6.400000000000007461 ) ;
#79 = CARTESIAN_POINT ( 'NONE',  ( -1.710332578358783092E-30, 5.999039130647430431E-32, -4.898587196589412829E-16 ) ) ;
#80 = PERSON_AND_ORGANIZATION_ROLE ( 'creator' ) ;
#81 = MECHANICAL_CONTEXT ( 'NONE', #69, 'mechanical' ) ;
#82 = APPROVAL_STATUS ( 'not_yet_approved' ) ;
#83 = DIRECTION ( 'NONE',  ( 4.275831445896958607E-31, 1.000000000000000000, 1.224646799147353207E-16 ) ) ;
#84 = PERSON_AND_ORGANIZATION_ROLE ( 'classification_officer' ) ;
#85 = CARTESIAN_POINT ( 'NONE',  ( 3.212162831735682182E-13, 4.799231304517932850E-32, 92.00000000000000000 ) ) ;
#86 = AXIS2_PLACEMENT_3D ( 'NONE', #137, #177, #258 ) ;
#87 = DIRECTION ( 'NONE',  ( -3.491481338843133355E-15, 1.224646799147353207E-16, -1.000000000000000000 ) ) ;
#88 = CARTESIAN_POINT ( 'NONE',  ( 0.0000000000000000000, 0.0000000000000000000, 0.0000000000000000000 ) ) ;
#89 = PLANE ( 'NONE',  #180 ) ;
#90 = UNCERTAINTY_MEASURE_WITH_UNIT (LENGTH_MEASURE( 1.000000000000000082E-05 ), #215, 'distance_accuracy_value', 'NONE');
#91 = ORIENTED_EDGE ( 'NONE', *, *, #172, .F. ) ;
#92 = ORIENTED_EDGE ( 'NONE', *, *, #256, .F. ) ;
#93 = ADVANCED_FACE ( 'NONE', ( #113, #211 ), #216, .T. ) ;
#94 = ORIENTED_EDGE ( 'NONE', *, *, #172, .T. ) ;
#95 = AXIS2_PLACEMENT_3D ( 'NONE', #79, #161, #39 ) ;
#96 = PERSON ( 'UNSPECIFIED', 'UNSPECIFIED', 'UNSPECIFIED', ('UNSPECIFIED'), ('UNSPECIFIED'), ('UNSPECIFIED') ) ;
#97 = ADVANCED_FACE ( 'NONE', ( #257, #5 ), #89, .T. ) ;
#98 = DATE_TIME_ROLE ( 'creation_date' ) ;
#99 = PLANE ( 'NONE',  #95 ) ;
#100 = DATE_AND_TIME ( #105, #243 ) ;
#101 = PERSON_AND_ORGANIZATION ( #96, #35 ) ;
#102 = AXIS2_PLACEMENT_3D ( 'NONE', #77, #238, #55 ) ;
#103 = APPROVAL_DATE_TIME ( #199, #263 ) ;
#104 = FACE_OUTER_BOUND ( 'NONE', #4, .T. ) ;
#105 = CALENDAR_DATE ( 2021, 18, 11 ) ;
#106 = CYLINDRICAL_SURFACE ( 'NONE', #10, 8.000000000000000000 ) ;
#107 = PRODUCT_DEFINITION_SHAPE ( 'NONE', 'NONE',  #207 ) ;
#108 = EDGE_CURVE ( 'NONE', #158, #158, #3, .T. ) ;
#109 = FACE_OUTER_BOUND ( 'NONE', #72, .T. ) ;
#110 = EDGE_LOOP ( 'NONE', ( #155 ) ) ;
#111 = FACE_OUTER_BOUND ( 'NONE', #145, .T. ) ;
#112 = ORIENTED_EDGE ( 'NONE', *, *, #6, .T. ) ;
#113 = FACE_OUTER_BOUND ( 'NONE', #134, .T. ) ;
#114 = EDGE_CURVE ( 'NONE', #36, #36, #44, .T. ) ;
#115 = CARTESIAN_POINT ( 'NONE',  ( 3.212162831735682182E-13, -1.126675055215564941E-14, 92.00000000000000000 ) ) ;
#116 = CC_DESIGN_PERSON_AND_ORGANIZATION_ASSIGNMENT ( #225, #84, ( #131 ) ) ;
#117 = AXIS2_PLACEMENT_3D ( 'NONE', #88, #68, #32 ) ;
#118 = FACE_BOUND ( 'NONE', #70, .T. ) ;
#119 = CARTESIAN_POINT ( 'NONE',  ( 8.000000000000010658, 0.0000000000000000000, 2.999999999999971578 ) ) ;
#120 = DIRECTION ( 'NONE',  ( 3.491481338843133355E-15, -0.0000000000000000000, 1.000000000000000000 ) ) ;
#121 = EDGE_CURVE ( 'NONE', #232, #232, #64, .T. ) ;
#122 = MANIFOLD_SOLID_BREP ( 'Corps-Déplacer/Copier1[1]', #228 ) ;
#123 = FACE_OUTER_BOUND ( 'NONE', #110, .T. ) ;
#124 = CARTESIAN_POINT ( 'NONE',  ( 0.0000000000000000000, 0.0000000000000000000, 0.0000000000000000000 ) ) ;
#125 = APPLICATION_PROTOCOL_DEFINITION ( 'international standard', 'config_control_design', 1994, #69 ) ;
#126 = FACE_OUTER_BOUND ( 'NONE', #45, .T. ) ;
#127 = AXIS2_PLACEMENT_3D ( 'NONE', #7, #135, #176 ) ;
#128 = PERSON_AND_ORGANIZATION_ROLE ( 'creator' ) ;
#129 = ADVANCED_FACE ( 'NONE', ( #123 ), #99, .T. ) ;
#130 = DIRECTION ( 'NONE',  ( 3.491481338843133355E-15, -1.224646799147353207E-16, 1.000000000000000000 ) ) ;
#131 = SECURITY_CLASSIFICATION ( '', '', #221 ) ;
#132 = EDGE_LOOP ( 'NONE', ( #148 ) ) ;
#133 = ADVANCED_FACE ( 'NONE', ( #261 ), #17, .F. ) ;
#134 = EDGE_LOOP ( 'NONE', ( #28 ) ) ;
#135 = DIRECTION ( 'NONE',  ( 3.491481338843133355E-15, -0.0000000000000000000, 1.000000000000000000 ) ) ;
#136 = ORIENTED_EDGE ( 'NONE', *, *, #256, .T. ) ;
#137 = CARTESIAN_POINT ( 'NONE',  ( 1.466422162314116009E-13, -5.143516556418883322E-15, 42.00000000000000000 ) ) ;
#138 = CARTESIAN_POINT ( 'NONE',  ( 1.466422162314116009E-13, 0.0000000000000000000, 42.00000000000000000 ) ) ;
#139 = AXIS2_PLACEMENT_3D ( 'NONE', #71, #151, #8 ) ;
#140 = APPROVAL_DATE_TIME ( #143, #31 ) ;
#141 = APPROVAL_PERSON_ORGANIZATION ( #101, #263, #2 ) ;
#142 = DATE_TIME_ROLE ( 'classification_date' ) ;
#143 = DATE_AND_TIME ( #166, #242 ) ;
#144 = AXIS2_PLACEMENT_3D ( 'NONE', #52, #214, #210 ) ;
#145 = EDGE_LOOP ( 'NONE', ( #253 ) ) ;
#146 = DESIGN_CONTEXT ( 'detailed design', #22, 'design' ) ;
#147 =( GEOMETRIC_REPRESENTATION_CONTEXT ( 3 ) GLOBAL_UNCERTAINTY_ASSIGNED_CONTEXT ( ( #90 ) ) GLOBAL_UNIT_ASSIGNED_CONTEXT ( ( #215, #174, #195 ) ) REPRESENTATION_CONTEXT ( 'NONE', 'WORKASPACE' ) );
#148 = ORIENTED_EDGE ( 'NONE', *, *, #6, .F. ) ;
#149 = FACE_OUTER_BOUND ( 'NONE', #132, .T. ) ;
#150 = PLANE ( 'NONE',  #139 ) ;
#151 = DIRECTION ( 'NONE',  ( 3.491481338843133355E-15, -1.224646799147353207E-16, 1.000000000000000000 ) ) ;
#152 = CIRCLE ( 'NONE', #144, 7.500000000000000000 ) ;
#153 = CARTESIAN_POINT ( 'NONE',  ( 7.500000000000146549, 0.0000000000000000000, 41.99999999999997158 ) ) ;
#154 = ADVANCED_FACE ( 'NONE', ( #126, #104 ), #106, .T. ) ;
#155 = ORIENTED_EDGE ( 'NONE', *, *, #114, .F. ) ;
#156 = ORIENTED_EDGE ( 'NONE', *, *, #108, .T. ) ;
#157 = VERTEX_POINT ( 'NONE', #198 ) ;
#158 = VERTEX_POINT ( 'NONE', #153 ) ;
#159 = ADVANCED_FACE ( 'NONE', ( #24 ), #226, .T. ) ;
#160 = DIRECTION ( 'NONE',  ( 0.0000000000000000000, 0.0000000000000000000, 1.000000000000000000 ) ) ;
#161 = DIRECTION ( 'NONE',  ( -3.491481338843133355E-15, 1.224646799147353207E-16, -1.000000000000000000 ) ) ;
#162 = CC_DESIGN_PERSON_AND_ORGANIZATION_ASSIGNMENT ( #202, #223, ( #67 ) ) ;
#163 = CC_DESIGN_APPROVAL ( #31, ( #67 ) ) ;
#164 = COORDINATED_UNIVERSAL_TIME_OFFSET ( 1, 0, .AHEAD. ) ;
#165 = CARTESIAN_POINT ( 'NONE',  ( 1.117274028429802674E-13, 5.999039130647424958E-32, 32.00000000000000000 ) ) ;
#166 = CALENDAR_DATE ( 2021, 18, 11 ) ;
#167 = CARTESIAN_POINT ( 'NONE',  ( 1.117274028429802674E-13, -3.918869757271530263E-15, 32.00000000000000000 ) ) ;
#168 = CIRCLE ( 'NONE', #37, 8.000000000000000000 ) ;
#169 = EDGE_LOOP ( 'NONE', ( #46 ) ) ;
#170 = CIRCLE ( 'NONE', #197, 8.000000000000000000 ) ;
#171 = CARTESIAN_POINT ( 'NONE',  ( 1.466422162314116009E-13, 8.999999999999994671, 42.00000000000000000 ) ) ;
#172 = EDGE_CURVE ( 'NONE', #217, #217, #170, .T. ) ;
#173 = CLOSED_SHELL ( 'NONE', ( #154, #159, #222, #129 ) ) ;
#174 =( NAMED_UNIT ( * ) PLANE_ANGLE_UNIT ( ) SI_UNIT ( $, .RADIAN. ) );
#175 = CC_DESIGN_SECURITY_CLASSIFICATION ( #131, ( #67 ) ) ;
#176 = DIRECTION ( 'NONE',  ( 1.000000000000000000, 0.0000000000000000000, -3.491481338843133355E-15 ) ) ;
#177 = DIRECTION ( 'NONE',  ( 3.491481338843133355E-15, -0.0000000000000000000, 1.000000000000000000 ) ) ;
#178 = VERTEX_POINT ( 'NONE', #119 ) ;
#179 = VERTEX_POINT ( 'NONE', #220 ) ;
#180 = AXIS2_PLACEMENT_3D ( 'NONE', #171, #74, #234 ) ;
#181 = CALENDAR_DATE ( 2021, 18, 11 ) ;
#182 = CALENDAR_DATE ( 2021, 18, 11 ) ;
#183 = DIRECTION ( 'NONE',  ( -3.491481338843133355E-15, 1.224646799147353207E-16, -1.000000000000000000 ) ) ;
#184 = APPROVAL_STATUS ( 'not_yet_approved' ) ;
#185 = DIRECTION ( 'NONE',  ( 4.275831445896958607E-31, 1.000000000000000000, 1.224646799147353207E-16 ) ) ;
#186 = LOCAL_TIME ( 11, 46, 17.00000000000000000, #206 ) ;
#187 = CARTESIAN_POINT ( 'NONE',  ( 0.0000000000000000000, 0.0000000000000000000, 0.0000000000000000000 ) ) ;
#188 = PRODUCT_RELATED_PRODUCT_CATEGORY ( 'detail', '', ( #40 ) ) ;
#189 = DIRECTION ( 'NONE',  ( 3.491481338843133355E-15, -0.0000000000000000000, 1.000000000000000000 ) ) ;
#190 = FACE_OUTER_BOUND ( 'NONE', #218, .T. ) ;
#191 = AXIS2_PLACEMENT_3D ( 'NONE', #85, #87, #185 ) ;
#192 = CYLINDRICAL_SURFACE ( 'NONE', #127, 7.500000000000000000 ) ;
#193 = ADVANCED_FACE ( 'NONE', ( #118, #109 ), #53, .T. ) ;
#194 = ORIENTED_EDGE ( 'NONE', *, *, #108, .F. ) ;
#195 =( NAMED_UNIT ( * ) SI_UNIT ( $, .STERADIAN. ) SOLID_ANGLE_UNIT ( ) );
#196 = ORIENTED_EDGE ( 'NONE', *, *, #43, .T. ) ;
#197 = AXIS2_PLACEMENT_3D ( 'NONE', #167, #63, #65 ) ;
#198 = CARTESIAN_POINT ( 'NONE',  ( 7.500000000000111910, 0.0000000000000000000, 31.99999999999997158 ) ) ;
#199 = DATE_AND_TIME ( #181, #25 ) ;
#200 = AXIS2_PLACEMENT_3D ( 'NONE', #15, #183, #57 ) ;
#201 = CC_DESIGN_APPROVAL ( #235, ( #131 ) ) ;
#202 = PERSON_AND_ORGANIZATION ( #96, #35 ) ;
#203 = COORDINATED_UNIVERSAL_TIME_OFFSET ( 1, 0, .AHEAD. ) ;
#204 = APPLICATION_PROTOCOL_DEFINITION ( 'international standard', 'config_control_design', 1994, #22 ) ;
#205 = CC_DESIGN_APPROVAL ( #263, ( #207 ) ) ;
#206 = COORDINATED_UNIVERSAL_TIME_OFFSET ( 1, 0, .AHEAD. ) ;
#207 = PRODUCT_DEFINITION ( 'UNKNOWN', '', #67, #146 ) ;
#208 = CARTESIAN_POINT ( 'NONE',  ( 3.156299130314193058E-13, -1.107080706429207412E-14, 90.40000000000000568 ) ) ;
#209 = DIRECTION ( 'NONE',  ( -3.491481338843133355E-15, 1.224646799147353207E-16, -1.000000000000000000 ) ) ;
#210 = DIRECTION ( 'NONE',  ( 1.000000000000000000, 0.0000000000000000000, -3.700743415417188731E-15 ) ) ;
#211 = FACE_OUTER_BOUND ( 'NONE', #230, .T. ) ;
#212 = TOROIDAL_SURFACE ( 'NONE', #73, 5.000000000000000000, 3.000000000000000000 ) ;
#213 = MANIFOLD_SOLID_BREP ( 'Corps-Déplacer/Copier1[2]', #173 ) ;
#214 = DIRECTION ( 'NONE',  ( 3.491481338843133355E-15, -0.0000000000000000000, 1.000000000000000000 ) ) ;
#215 =( LENGTH_UNIT ( ) NAMED_UNIT ( * ) SI_UNIT ( .MILLI., .METRE. ) );
#216 = CYLINDRICAL_SURFACE ( 'NONE', #117, 7.999999999999998224 ) ;
#217 = VERTEX_POINT ( 'NONE', #237 ) ;
#218 = EDGE_LOOP ( 'NONE', ( #196 ) ) ;
#219 = APPROVAL_PERSON_ORGANIZATION ( #14, #235, #262 ) ;
#220 = CARTESIAN_POINT ( 'NONE',  ( 3.212162831735682182E-13, 6.399999999999995914, 92.00000000000000000 ) ) ;
#221 = SECURITY_CLASSIFICATION_LEVEL ( 'unclassified' ) ;
#222 = ADVANCED_FACE ( 'NONE', ( #251, #149 ), #212, .T. ) ;
#223 = PERSON_AND_ORGANIZATION_ROLE ( 'design_supplier' ) ;
#224 = APPROVAL_STATUS ( 'not_yet_approved' ) ;
#225 = PERSON_AND_ORGANIZATION ( #96, #35 ) ;
#226 = PLANE ( 'NONE',  #49 ) ;
#227 = CIRCLE ( 'NONE', #86, 7.999999999999998224 ) ;
#228 = CLOSED_SHELL ( 'NONE', ( #93, #193, #133, #76, #97, #54 ) ) ;
#229 = ORIENTED_EDGE ( 'NONE', *, *, #62, .F. ) ;
#230 = EDGE_LOOP ( 'NONE', ( #136 ) ) ;
#231 = AXIS2_PLACEMENT_3D ( 'NONE', #208, #209, #26 ) ;
#232 = VERTEX_POINT ( 'NONE', #260 ) ;
#233 = EDGE_LOOP ( 'NONE', ( #92 ) ) ;
#234 = DIRECTION ( 'NONE',  ( -1.000000000000000000, 0.0000000000000000000, 3.491481338843133355E-15 ) ) ;
#235 = APPROVAL ( #224, 'UNSPECIFIED' ) ;
#236 = LOCAL_TIME ( 11, 46, 17.00000000000000000, #203 ) ;
#237 = CARTESIAN_POINT ( 'NONE',  ( 1.117274028429802674E-13, 7.999999999999996447, 32.00000000000000000 ) ) ;
#238 = DIRECTION ( 'NONE',  ( 3.491481338843133355E-15, -0.0000000000000000000, 1.000000000000000000 ) ) ;
#239 = CC_DESIGN_PERSON_AND_ORGANIZATION_ASSIGNMENT ( #38, #61, ( #40 ) ) ;
#240 = APPROVAL_ROLE ( '' ) ;
#241 = COORDINATED_UNIVERSAL_TIME_OFFSET ( 1, 0, .AHEAD. ) ;
#242 = LOCAL_TIME ( 11, 46, 17.00000000000000000, #241 ) ;
#243 = LOCAL_TIME ( 11, 46, 17.00000000000000000, #164 ) ;
#244 = APPROVAL_DATE_TIME ( #100, #235 ) ;
#245 = EDGE_LOOP ( 'NONE', ( #229 ) ) ;
#246 = CC_DESIGN_PERSON_AND_ORGANIZATION_ASSIGNMENT ( #41, #80, ( #207 ) ) ;
#247 = DIRECTION ( 'NONE',  ( -3.491481338843133355E-15, 1.224646799147353207E-16, -1.000000000000000000 ) ) ;
#248 = SHAPE_DEFINITION_REPRESENTATION ( #107, #255 ) ;
#249 = CC_DESIGN_PERSON_AND_ORGANIZATION_ASSIGNMENT ( #42, #128, ( #67 ) ) ;
#250 = EDGE_LOOP ( 'NONE', ( #194 ) ) ;
#251 = FACE_OUTER_BOUND ( 'NONE', #169, .T. ) ;
#252 = ORIENTED_EDGE ( 'NONE', *, *, #62, .T. ) ;
#253 = ORIENTED_EDGE ( 'NONE', *, *, #43, .F. ) ;
#254 = EDGE_LOOP ( 'NONE', ( #91 ) ) ;
#255 = ADVANCED_BREP_SHAPE_REPRESENTATION ( '339061', ( #122, #213, #13 ), #147 ) ;
#256 = EDGE_CURVE ( 'NONE', #33, #33, #227, .T. ) ;
#257 = FACE_OUTER_BOUND ( 'NONE', #233, .T. ) ;
#258 = DIRECTION ( 'NONE',  ( -1.000000000000000000, 0.0000000000000000000, 3.469446951953614978E-15 ) ) ;
#259 = CC_DESIGN_DATE_AND_TIME_ASSIGNMENT ( #18, #98, ( #207 ) ) ;
#260 = CARTESIAN_POINT ( 'NONE',  ( 3.156299130314193058E-13, 7.999999999999986677, 90.40000000000000568 ) ) ;
#261 = FACE_OUTER_BOUND ( 'NONE', #245, .T. ) ;
#262 = APPROVAL_ROLE ( '' ) ;
#263 = APPROVAL ( #184, 'UNSPECIFIED' ) ;
ENDSEC;
END-ISO-10303-21;
