ISO-10303-21;
HEADER;
FILE_DESCRIPTION (( 'STEP AP203' ),
    '1' );
FILE_NAME ('339060.step',
    '2021-11-18T10:46:16',
    ( '' ),
    ( '' ),
    'SwSTEP 2.0',
    'SolidWorks 2019',
    '' );
FILE_SCHEMA (( 'CONFIG_CONTROL_DESIGN' ));
ENDSEC;

DATA;
#1 = ORIENTED_EDGE ( 'NONE', *, *, #139, .T. ) ;
#2 = ORIENTED_EDGE ( 'NONE', *, *, #124, .F. ) ;
#3 = LOCAL_TIME ( 11, 46, 16.00000000000000000, #199 ) ;
#4 = FACE_OUTER_BOUND ( 'NONE', #110, .T. ) ;
#5 = DIRECTION ( 'NONE',  ( -4.275831445896958607E-31, -1.000000000000000000, -1.224646799147353207E-16 ) ) ;
#6 = APPROVAL_STATUS ( 'not_yet_approved' ) ;
#7 = FACE_OUTER_BOUND ( 'NONE', #29, .T. ) ;
#8 = VERTEX_POINT ( 'NONE', #76 ) ;
#9 = CC_DESIGN_PERSON_AND_ORGANIZATION_ASSIGNMENT ( #192, #69, ( #34 ) ) ;
#10 = CIRCLE ( 'NONE', #125, 7.999999999999996447 ) ;
#11 = CARTESIAN_POINT ( 'NONE',  ( 1.117274028429802674E-13, -3.918869757271530263E-15, 32.00000000000000000 ) ) ;
#12 = APPROVAL_STATUS ( 'not_yet_approved' ) ;
#13 = CARTESIAN_POINT ( 'NONE',  ( 3.156299130314193058E-13, -1.107080706429207412E-14, 90.40000000000000568 ) ) ;
#14 = AXIS2_PLACEMENT_3D ( 'NONE', #128, #245, #68 ) ;
#15 = PERSON_AND_ORGANIZATION_ROLE ( 'design_owner' ) ;
#16 = APPROVAL_DATE_TIME ( #160, #105 ) ;
#17 = CARTESIAN_POINT ( 'NONE',  ( 1.117274028429802674E-13, 7.999999999999996447, 32.00000000000000000 ) ) ;
#18 = AXIS2_PLACEMENT_3D ( 'NONE', #249, #152, #201 ) ;
#19 =( LENGTH_UNIT ( ) NAMED_UNIT ( * ) SI_UNIT ( .MILLI., .METRE. ) );
#20 = CONICAL_SURFACE ( 'NONE', #242, 7.999999999999996447, 0.7853981633974480570 ) ;
#21 = ORIENTED_EDGE ( 'NONE', *, *, #241, .F. ) ;
#22 = DIRECTION ( 'NONE',  ( 0.0000000000000000000, 0.0000000000000000000, 1.000000000000000000 ) ) ;
#23 = EDGE_LOOP ( 'NONE', ( #206 ) ) ;
#24 = EDGE_LOOP ( 'NONE', ( #1 ) ) ;
#25 = COORDINATED_UNIVERSAL_TIME_OFFSET ( 1, 0, .AHEAD. ) ;
#26 =( NAMED_UNIT ( * ) PLANE_ANGLE_UNIT ( ) SI_UNIT ( $, .RADIAN. ) );
#27 = EDGE_LOOP ( 'NONE', ( #46 ) ) ;
#28 = DATE_TIME_ROLE ( 'classification_date' ) ;
#29 = EDGE_LOOP ( 'NONE', ( #145 ) ) ;
#30 = APPROVAL_ROLE ( '' ) ;
#31 = DIRECTION ( 'NONE',  ( 3.491481338843133355E-15, -0.0000000000000000000, 1.000000000000000000 ) ) ;
#32 = APPROVAL_STATUS ( 'not_yet_approved' ) ;
#33 = DIRECTION ( 'NONE',  ( 0.0000000000000000000, 1.000000000000000000, 0.0000000000000000000 ) ) ;
#34 = PRODUCT_DEFINITION_FORMATION_WITH_SPECIFIED_SOURCE ( 'ANY', '', #246, .NOT_KNOWN. ) ;
#35 = DIRECTION ( 'NONE',  ( 1.000000000000000000, 0.0000000000000000000, -3.491481338843133355E-15 ) ) ;
#36 = EDGE_CURVE ( 'NONE', #195, #195, #55, .T. ) ;
#37 = FACE_OUTER_BOUND ( 'NONE', #240, .T. ) ;
#38 = DIRECTION ( 'NONE',  ( 0.0000000000000000000, 1.000000000000000000, 0.0000000000000000000 ) ) ;
#39 = AXIS2_PLACEMENT_3D ( 'NONE', #93, #168, #208 ) ;
#40 = CC_DESIGN_APPROVAL ( #230, ( #66 ) ) ;
#41 = CARTESIAN_POINT ( 'NONE',  ( 6.000000000000000000, 0.0000000000000000000, -2.181624977104720368E-14 ) ) ;
#42 = ORIENTED_EDGE ( 'NONE', *, *, #124, .T. ) ;
#43 = CIRCLE ( 'NONE', #146, 6.000000000000000000 ) ;
#44 = ADVANCED_FACE ( 'NONE', ( #4 ), #221, .F. ) ;
#45 = EDGE_LOOP ( 'NONE', ( #247 ) ) ;
#46 = ORIENTED_EDGE ( 'NONE', *, *, #36, .T. ) ;
#47 = DATE_AND_TIME ( #52, #3 ) ;
#48 = DIRECTION ( 'NONE',  ( 1.000000000000000000, 0.0000000000000000000, -3.700743415417188731E-15 ) ) ;
#49 = AXIS2_PLACEMENT_3D ( 'NONE', #166, #144, #173 ) ;
#50 = DIRECTION ( 'NONE',  ( 3.491481338843133355E-15, -0.0000000000000000000, 1.000000000000000000 ) ) ;
#51 = DIRECTION ( 'NONE',  ( -3.491481338843133355E-15, 1.224646799147353207E-16, -1.000000000000000000 ) ) ;
#52 = CALENDAR_DATE ( 2021, 18, 11 ) ;
#53 = DIRECTION ( 'NONE',  ( -3.491481338843133355E-15, 1.224646799147353207E-16, -1.000000000000000000 ) ) ;
#54 = DIRECTION ( 'NONE',  ( -1.000000000000000000, 0.0000000000000000000, 3.491481338843133355E-15 ) ) ;
#55 = CIRCLE ( 'NONE', #129, 7.500000000000000000 ) ;
#56 = CARTESIAN_POINT ( 'NONE',  ( 3.212162831735682182E-13, 4.799231304517932850E-32, 92.00000000000000000 ) ) ;
#57 = DIRECTION ( 'NONE',  ( -3.491481338843133355E-15, 1.224646799147353207E-16, -1.000000000000000000 ) ) ;
#58 = AXIS2_PLACEMENT_3D ( 'NONE', #122, #140, #227 ) ;
#59 = CC_DESIGN_PERSON_AND_ORGANIZATION_ASSIGNMENT ( #251, #248, ( #34 ) ) ;
#60 = CARTESIAN_POINT ( 'NONE',  ( 3.156299130314193058E-13, 7.999999999999986677, 90.40000000000000568 ) ) ;
#61 = AXIS2_PLACEMENT_3D ( 'NONE', #228, #57, #142 ) ;
#62 = PRODUCT_RELATED_PRODUCT_CATEGORY ( 'detail', '', ( #246 ) ) ;
#63 = EDGE_LOOP ( 'NONE', ( #94 ) ) ;
#64 = EDGE_LOOP ( 'NONE', ( #21 ) ) ;
#65 = EDGE_CURVE ( 'NONE', #8, #8, #86, .T. ) ;
#66 = SECURITY_CLASSIFICATION ( '', '', #135 ) ;
#67 = APPLICATION_PROTOCOL_DEFINITION ( 'international standard', 'config_control_design', 1994, #176 ) ;
#68 = DIRECTION ( 'NONE',  ( 0.0000000000000000000, 1.000000000000000000, 0.0000000000000000000 ) ) ;
#69 = PERSON_AND_ORGANIZATION_ROLE ( 'design_supplier' ) ;
#70 = CARTESIAN_POINT ( 'NONE',  ( -1.282749433769087757E-30, 0.0000000000000000000, -3.673940397442059868E-16 ) ) ;
#71 = ADVANCED_FACE ( 'NONE', ( #224 ), #134, .T. ) ;
#72 = COORDINATED_UNIVERSAL_TIME_OFFSET ( 1, 0, .AHEAD. ) ;
#73 = FACE_OUTER_BOUND ( 'NONE', #24, .T. ) ;
#74 = CALENDAR_DATE ( 2021, 18, 11 ) ;
#75 = COORDINATED_UNIVERSAL_TIME_OFFSET ( 1, 0, .AHEAD. ) ;
#76 = CARTESIAN_POINT ( 'NONE',  ( 3.212162831735682182E-13, 6.399999999999995914, 92.00000000000000000 ) ) ;
#77 = DATE_AND_TIME ( #74, #250 ) ;
#78 = UNCERTAINTY_MEASURE_WITH_UNIT (LENGTH_MEASURE( 1.000000000000000082E-05 ), #19, 'distance_accuracy_value', 'NONE');
#79 = CARTESIAN_POINT ( 'NONE',  ( 8.000000000000007105, 0.0000000000000000000, 1.999999999999971356 ) ) ;
#80 = FACE_OUTER_BOUND ( 'NONE', #64, .T. ) ;
#81 = CARTESIAN_POINT ( 'NONE',  ( -3.028377322213058170E-30, 0.0000000000000000000, -8.673617379884035472E-16 ) ) ;
#82 = CC_DESIGN_PERSON_AND_ORGANIZATION_ASSIGNMENT ( #106, #183, ( #193 ) ) ;
#83 = VERTEX_POINT ( 'NONE', #236 ) ;
#84 = CIRCLE ( 'NONE', #49, 7.999999999999998224 ) ;
#85 = VERTEX_POINT ( 'NONE', #17 ) ;
#86 = CIRCLE ( 'NONE', #14, 6.400000000000007461 ) ;
#87 = DIRECTION ( 'NONE',  ( 1.000000000000000000, 0.0000000000000000000, -3.469446951953614189E-15 ) ) ;
#88 = CYLINDRICAL_SURFACE ( 'NONE', #196, 7.500000000000000000 ) ;
#89 = DIRECTION ( 'NONE',  ( 1.000000000000000000, 0.0000000000000000000, 0.0000000000000000000 ) ) ;
#90 = EDGE_LOOP ( 'NONE', ( #171 ) ) ;
#91 = CIRCLE ( 'NONE', #175, 8.000000000000000000 ) ;
#92 =( NAMED_UNIT ( * ) SI_UNIT ( $, .STERADIAN. ) SOLID_ANGLE_UNIT ( ) );
#93 = CARTESIAN_POINT ( 'NONE',  ( 1.117274028429802674E-13, 5.999039130647424958E-32, 32.00000000000000000 ) ) ;
#94 = ORIENTED_EDGE ( 'NONE', *, *, #127, .F. ) ;
#95 = CALENDAR_DATE ( 2021, 18, 11 ) ;
#96 = CYLINDRICAL_SURFACE ( 'NONE', #18, 7.999999999999998224 ) ;
#97 = CALENDAR_DATE ( 2021, 18, 11 ) ;
#98 = CLOSED_SHELL ( 'NONE', ( #256, #164, #244, #112, #162, #44 ) ) ;
#99 = DIRECTION ( 'NONE',  ( 1.000000000000000000, 0.0000000000000000000, -3.700743415417188731E-15 ) ) ;
#100 = CARTESIAN_POINT ( 'NONE',  ( 1.466422162314116009E-13, 8.999999999999994671, 42.00000000000000000 ) ) ;
#101 = DIRECTION ( 'NONE',  ( 1.000000000000000000, 0.0000000000000000000, -3.491481338843133355E-15 ) ) ;
#102 = FACE_OUTER_BOUND ( 'NONE', #63, .T. ) ;
#103 = AXIS2_PLACEMENT_3D ( 'NONE', #114, #191, #5 ) ;
#104 = APPLICATION_PROTOCOL_DEFINITION ( 'international standard', 'config_control_design', 1994, #231 ) ;
#105 = APPROVAL ( #32, 'UNSPECIFIED' ) ;
#106 = PERSON_AND_ORGANIZATION ( #185, #218 ) ;
#107 = VERTEX_POINT ( 'NONE', #41 ) ;
#108 = APPROVAL_PERSON_ORGANIZATION ( #258, #105, #121 ) ;
#109 = FACE_OUTER_BOUND ( 'NONE', #131, .T. ) ;
#110 = EDGE_LOOP ( 'NONE', ( #207 ) ) ;
#111 = EDGE_LOOP ( 'NONE', ( #116 ) ) ;
#112 = ADVANCED_FACE ( 'NONE', ( #205, #109 ), #88, .T. ) ;
#113 = AXIS2_PLACEMENT_3D ( 'NONE', #137, #50, #87 ) ;
#114 = CARTESIAN_POINT ( 'NONE',  ( 1.117274028429802674E-13, 5.999039130647424958E-32, 32.00000000000000000 ) ) ;
#115 = PERSON_AND_ORGANIZATION ( #185, #218 ) ;
#116 = ORIENTED_EDGE ( 'NONE', *, *, #262, .T. ) ;
#117 = SHAPE_DEFINITION_REPRESENTATION ( #170, #239 ) ;
#118 = DIRECTION ( 'NONE',  ( -3.491481338843133355E-15, 1.224646799147353207E-16, -1.000000000000000000 ) ) ;
#119 =( GEOMETRIC_REPRESENTATION_CONTEXT ( 3 ) GLOBAL_UNCERTAINTY_ASSIGNED_CONTEXT ( ( #78 ) ) GLOBAL_UNIT_ASSIGNED_CONTEXT ( ( #19, #26, #92 ) ) REPRESENTATION_CONTEXT ( 'NONE', 'WORKASPACE' ) );
#120 = CARTESIAN_POINT ( 'NONE',  ( 7.500000000000146549, 0.0000000000000000000, 41.99999999999997158 ) ) ;
#121 = APPROVAL_ROLE ( '' ) ;
#122 = CARTESIAN_POINT ( 'NONE',  ( -1.710332578358783092E-30, 5.999039130647430431E-32, -4.898587196589412829E-16 ) ) ;
#123 = DIRECTION ( 'NONE',  ( 0.0000000000000000000, 1.000000000000000000, 0.0000000000000000000 ) ) ;
#124 = EDGE_CURVE ( 'NONE', #197, #197, #187, .T. ) ;
#125 = AXIS2_PLACEMENT_3D ( 'NONE', #13, #53, #38 ) ;
#126 = VERTEX_POINT ( 'NONE', #60 ) ;
#127 = EDGE_CURVE ( 'NONE', #155, #155, #84, .T. ) ;
#128 = CARTESIAN_POINT ( 'NONE',  ( 3.212162831735682182E-13, -1.126675055215564941E-14, 92.00000000000000000 ) ) ;
#129 = AXIS2_PLACEMENT_3D ( 'NONE', #190, #148, #48 ) ;
#130 = MANIFOLD_SOLID_BREP ( 'Corps-Déplacer/Copier1[2]', #165 ) ;
#131 = EDGE_LOOP ( 'NONE', ( #167 ) ) ;
#132 = EDGE_LOOP ( 'NONE', ( #223 ) ) ;
#133 = CC_DESIGN_DATE_AND_TIME_ASSIGNMENT ( #77, #229, ( #193 ) ) ;
#134 = PLANE ( 'NONE',  #103 ) ;
#135 = SECURITY_CLASSIFICATION_LEVEL ( 'unclassified' ) ;
#136 = AXIS2_PLACEMENT_3D ( 'NONE', #100, #253, #54 ) ;
#137 = CARTESIAN_POINT ( 'NONE',  ( 6.982962677686263555E-15, 0.0000000000000000000, 1.999999999999999112 ) ) ;
#138 = CARTESIAN_POINT ( 'NONE',  ( 1.117274028429802674E-13, 0.0000000000000000000, 32.00000000000000000 ) ) ;
#139 = EDGE_CURVE ( 'NONE', #85, #85, #91, .T. ) ;
#140 = DIRECTION ( 'NONE',  ( -3.491481338843133355E-15, 1.224646799147353207E-16, -1.000000000000000000 ) ) ;
#141 = APPROVAL_PERSON_ORGANIZATION ( #225, #179, #30 ) ;
#142 = DIRECTION ( 'NONE',  ( 4.275831445896958607E-31, 1.000000000000000000, 1.224646799147353207E-16 ) ) ;
#143 = FACE_OUTER_BOUND ( 'NONE', #188, .T. ) ;
#144 = DIRECTION ( 'NONE',  ( 3.491481338843133355E-15, -0.0000000000000000000, 1.000000000000000000 ) ) ;
#145 = ORIENTED_EDGE ( 'NONE', *, *, #65, .F. ) ;
#146 = AXIS2_PLACEMENT_3D ( 'NONE', #81, #154, #101 ) ;
#147 = APPROVAL_DATE_TIME ( #172, #230 ) ;
#148 = DIRECTION ( 'NONE',  ( 3.491481338843133355E-15, -0.0000000000000000000, 1.000000000000000000 ) ) ;
#149 = DATE_AND_TIME ( #97, #204 ) ;
#150 = EDGE_LOOP ( 'NONE', ( #189 ) ) ;
#151 = APPROVAL_ROLE ( '' ) ;
#152 = DIRECTION ( 'NONE',  ( -3.491481338843133355E-15, 1.224646799147353207E-16, -1.000000000000000000 ) ) ;
#153 = PERSON_AND_ORGANIZATION_ROLE ( 'classification_officer' ) ;
#154 = DIRECTION ( 'NONE',  ( 3.491481338843133355E-15, -0.0000000000000000000, 1.000000000000000000 ) ) ;
#155 = VERTEX_POINT ( 'NONE', #163 ) ;
#156 = APPROVAL_PERSON_ORGANIZATION ( #115, #230, #151 ) ;
#157 = CC_DESIGN_DATE_AND_TIME_ASSIGNMENT ( #47, #28, ( #66 ) ) ;
#158 = PLANE ( 'NONE',  #58 ) ;
#159 = FACE_BOUND ( 'NONE', #27, .T. ) ;
#160 = DATE_AND_TIME ( #180, #202 ) ;
#161 = LOCAL_TIME ( 11, 46, 16.00000000000000000, #169 ) ;
#162 = ADVANCED_FACE ( 'NONE', ( #102, #159 ), #233, .T. ) ;
#163 = CARTESIAN_POINT ( 'NONE',  ( -7.999999999999850786, -5.143516556418883322E-15, 42.00000000000002842 ) ) ;
#164 = ADVANCED_FACE ( 'NONE', ( #254, #182 ), #20, .T. ) ;
#165 = CLOSED_SHELL ( 'NONE', ( #198, #71, #237, #219 ) ) ;
#166 = CARTESIAN_POINT ( 'NONE',  ( 1.466422162314116009E-13, -5.143516556418883322E-15, 42.00000000000000000 ) ) ;
#167 = ORIENTED_EDGE ( 'NONE', *, *, #36, .F. ) ;
#168 = DIRECTION ( 'NONE',  ( 3.491481338843133355E-15, -1.224646799147353207E-16, 1.000000000000000000 ) ) ;
#169 = COORDINATED_UNIVERSAL_TIME_OFFSET ( 1, 0, .AHEAD. ) ;
#170 = PRODUCT_DEFINITION_SHAPE ( 'NONE', 'NONE',  #193 ) ;
#171 = ORIENTED_EDGE ( 'NONE', *, *, #139, .F. ) ;
#172 = DATE_AND_TIME ( #95, #161 ) ;
#173 = DIRECTION ( 'NONE',  ( -1.000000000000000000, 0.0000000000000000000, 3.469446951953614978E-15 ) ) ;
#174 = APPROVAL_DATE_TIME ( #149, #179 ) ;
#175 = AXIS2_PLACEMENT_3D ( 'NONE', #11, #118, #123 ) ;
#176 = APPLICATION_CONTEXT ( 'configuration controlled 3d designs of mechanical parts and assemblies' ) ;
#177 = DESIGN_CONTEXT ( 'detailed design', #231, 'design' ) ;
#178 = DIRECTION ( 'NONE',  ( 3.491481338843133355E-15, -0.0000000000000000000, 1.000000000000000000 ) ) ;
#179 = APPROVAL ( #12, 'UNSPECIFIED' ) ;
#180 = CALENDAR_DATE ( 2021, 18, 11 ) ;
#181 = TOROIDAL_SURFACE ( 'NONE', #260, 6.000000000000000000, 2.000000000000000000 ) ;
#182 = FACE_OUTER_BOUND ( 'NONE', #23, .T. ) ;
#183 = PERSON_AND_ORGANIZATION_ROLE ( 'creator' ) ;
#184 = CC_DESIGN_APPROVAL ( #105, ( #193 ) ) ;
#185 = PERSON ( 'UNSPECIFIED', 'UNSPECIFIED', 'UNSPECIFIED', ('UNSPECIFIED'), ('UNSPECIFIED'), ('UNSPECIFIED') ) ;
#186 = MECHANICAL_CONTEXT ( 'NONE', #176, 'mechanical' ) ;
#187 = CIRCLE ( 'NONE', #113, 8.000000000000000000 ) ;
#188 = EDGE_LOOP ( 'NONE', ( #2 ) ) ;
#189 = ORIENTED_EDGE ( 'NONE', *, *, #241, .T. ) ;
#190 = CARTESIAN_POINT ( 'NONE',  ( 1.466422162314116009E-13, 0.0000000000000000000, 42.00000000000000000 ) ) ;
#191 = DIRECTION ( 'NONE',  ( 3.491481338843133355E-15, -1.224646799147353207E-16, 1.000000000000000000 ) ) ;
#192 = PERSON_AND_ORGANIZATION ( #185, #218 ) ;
#193 = PRODUCT_DEFINITION ( 'UNKNOWN', '', #34, #177 ) ;
#194 = FACE_OUTER_BOUND ( 'NONE', #150, .T. ) ;
#195 = VERTEX_POINT ( 'NONE', #120 ) ;
#196 = AXIS2_PLACEMENT_3D ( 'NONE', #70, #263, #226 ) ;
#197 = VERTEX_POINT ( 'NONE', #79 ) ;
#198 = ADVANCED_FACE ( 'NONE', ( #217, #73 ), #252, .T. ) ;
#199 = COORDINATED_UNIVERSAL_TIME_OFFSET ( 1, 0, .AHEAD. ) ;
#200 = DIRECTION ( 'NONE',  ( -3.491481338843133355E-15, 1.224646799147353207E-16, -1.000000000000000000 ) ) ;
#201 = DIRECTION ( 'NONE',  ( 4.275831445896958607E-31, 1.000000000000000000, 1.224646799147353207E-16 ) ) ;
#202 = LOCAL_TIME ( 11, 46, 16.00000000000000000, #75 ) ;
#203 = MANIFOLD_SOLID_BREP ( 'Corps-Déplacer/Copier1[1]', #98 ) ;
#204 = LOCAL_TIME ( 11, 46, 16.00000000000000000, #72 ) ;
#205 = FACE_OUTER_BOUND ( 'NONE', #111, .T. ) ;
#206 = ORIENTED_EDGE ( 'NONE', *, *, #210, .F. ) ;
#207 = ORIENTED_EDGE ( 'NONE', *, *, #262, .F. ) ;
#208 = DIRECTION ( 'NONE',  ( -4.275831445896958607E-31, -1.000000000000000000, -1.224646799147353207E-16 ) ) ;
#209 = CIRCLE ( 'NONE', #238, 7.500000000000000000 ) ;
#210 = EDGE_CURVE ( 'NONE', #126, #126, #10, .T. ) ;
#211 = EDGE_LOOP ( 'NONE', ( #42 ) ) ;
#212 = PERSON_AND_ORGANIZATION ( #185, #218 ) ;
#213 = FACE_OUTER_BOUND ( 'NONE', #132, .T. ) ;
#214 = PERSON_AND_ORGANIZATION ( #185, #218 ) ;
#215 = CARTESIAN_POINT ( 'NONE',  ( 3.156299130314193058E-13, -1.107080706429207412E-14, 90.40000000000000568 ) ) ;
#216 = DIRECTION ( 'NONE',  ( 4.275831445896958607E-31, 1.000000000000000000, 1.224646799147353207E-16 ) ) ;
#217 = FACE_OUTER_BOUND ( 'NONE', #211, .T. ) ;
#218 = ORGANIZATION ( 'UNSPECIFIED', 'UNSPECIFIED', '' ) ;
#219 = ADVANCED_FACE ( 'NONE', ( #80 ), #158, .T. ) ;
#220 = CC_DESIGN_SECURITY_CLASSIFICATION ( #66, ( #34 ) ) ;
#221 = PLANE ( 'NONE',  #39 ) ;
#222 = CARTESIAN_POINT ( 'NONE',  ( 0.0000000000000000000, 0.0000000000000000000, 0.0000000000000000000 ) ) ;
#223 = ORIENTED_EDGE ( 'NONE', *, *, #127, .T. ) ;
#224 = FACE_OUTER_BOUND ( 'NONE', #90, .T. ) ;
#225 = PERSON_AND_ORGANIZATION ( #185, #218 ) ;
#226 = DIRECTION ( 'NONE',  ( 1.000000000000000000, 0.0000000000000000000, -3.491481338843133355E-15 ) ) ;
#227 = DIRECTION ( 'NONE',  ( 4.275831445896958607E-31, 1.000000000000000000, 1.224646799147353207E-16 ) ) ;
#228 = CARTESIAN_POINT ( 'NONE',  ( 0.0000000000000000000, 0.0000000000000000000, 0.0000000000000000000 ) ) ;
#229 = DATE_TIME_ROLE ( 'creation_date' ) ;
#230 = APPROVAL ( #6, 'UNSPECIFIED' ) ;
#231 = APPLICATION_CONTEXT ( 'configuration controlled 3d designs of mechanical parts and assemblies' ) ;
#232 = PLANE ( 'NONE',  #261 ) ;
#233 = PLANE ( 'NONE',  #136 ) ;
#234 = CC_DESIGN_PERSON_AND_ORGANIZATION_ASSIGNMENT ( #214, #15, ( #246 ) ) ;
#235 = CC_DESIGN_APPROVAL ( #179, ( #34 ) ) ;
#236 = CARTESIAN_POINT ( 'NONE',  ( 7.500000000000111910, 0.0000000000000000000, 31.99999999999997158 ) ) ;
#237 = ADVANCED_FACE ( 'NONE', ( #194, #143 ), #181, .T. ) ;
#238 = AXIS2_PLACEMENT_3D ( 'NONE', #138, #31, #99 ) ;
#239 = ADVANCED_BREP_SHAPE_REPRESENTATION ( '339060', ( #203, #130, #255 ), #119 ) ;
#240 = EDGE_LOOP ( 'NONE', ( #243 ) ) ;
#241 = EDGE_CURVE ( 'NONE', #107, #107, #43, .T. ) ;
#242 = AXIS2_PLACEMENT_3D ( 'NONE', #215, #200, #33 ) ;
#243 = ORIENTED_EDGE ( 'NONE', *, *, #210, .T. ) ;
#244 = ADVANCED_FACE ( 'NONE', ( #7 ), #232, .F. ) ;
#245 = DIRECTION ( 'NONE',  ( -3.491481338843133355E-15, 1.224646799147353207E-16, -1.000000000000000000 ) ) ;
#246 = PRODUCT ( '339060', '339060', '', ( #186 ) ) ;
#247 = ORIENTED_EDGE ( 'NONE', *, *, #65, .T. ) ;
#248 = PERSON_AND_ORGANIZATION_ROLE ( 'creator' ) ;
#249 = CARTESIAN_POINT ( 'NONE',  ( 0.0000000000000000000, 0.0000000000000000000, 0.0000000000000000000 ) ) ;
#250 = LOCAL_TIME ( 11, 46, 16.00000000000000000, #25 ) ;
#251 = PERSON_AND_ORGANIZATION ( #185, #218 ) ;
#252 = CYLINDRICAL_SURFACE ( 'NONE', #61, 8.000000000000000000 ) ;
#253 = DIRECTION ( 'NONE',  ( -3.491481338843133355E-15, 0.0000000000000000000, -1.000000000000000000 ) ) ;
#254 = FACE_BOUND ( 'NONE', #45, .T. ) ;
#255 = AXIS2_PLACEMENT_3D ( 'NONE', #222, #22, #89 ) ;
#256 = ADVANCED_FACE ( 'NONE', ( #37, #213 ), #96, .T. ) ;
#257 = CARTESIAN_POINT ( 'NONE',  ( 6.982962677686263555E-15, 0.0000000000000000000, 1.999999999999999112 ) ) ;
#258 = PERSON_AND_ORGANIZATION ( #185, #218 ) ;
#259 = CC_DESIGN_PERSON_AND_ORGANIZATION_ASSIGNMENT ( #212, #153, ( #66 ) ) ;
#260 = AXIS2_PLACEMENT_3D ( 'NONE', #257, #178, #35 ) ;
#261 = AXIS2_PLACEMENT_3D ( 'NONE', #56, #51, #216 ) ;
#262 = EDGE_CURVE ( 'NONE', #83, #83, #209, .T. ) ;
#263 = DIRECTION ( 'NONE',  ( 3.491481338843133355E-15, -0.0000000000000000000, 1.000000000000000000 ) ) ;
ENDSEC;
END-ISO-10303-21;
