ISO-10303-21;
HEADER;
FILE_DESCRIPTION (( 'STEP AP203' ),
    '1' );
FILE_NAME ('339059.step',
    '2021-11-18T10:46:15',
    ( '' ),
    ( '' ),
    'SwSTEP 2.0',
    'SolidWorks 2019',
    '' );
FILE_SCHEMA (( 'CONFIG_CONTROL_DESIGN' ));
ENDSEC;

DATA;
#1 = AXIS2_PLACEMENT_3D ( 'NONE', #51, #14, #82 ) ;
#2 = EDGE_LOOP ( 'NONE', ( #48 ) ) ;
#3 = LOCAL_TIME ( 11, 46, 15.00000000000000000, #228 ) ;
#4 = ORIENTED_EDGE ( 'NONE', *, *, #11, .F. ) ;
#5 = AXIS2_PLACEMENT_3D ( 'NONE', #127, #130, #144 ) ;
#6 = EDGE_LOOP ( 'NONE', ( #158 ) ) ;
#7 = CARTESIAN_POINT ( 'NONE',  ( -1.710332578358783092E-30, 5.999039130647430431E-32, -4.898587196589412829E-16 ) ) ;
#8 = DATE_TIME_ROLE ( 'creation_date' ) ;
#9 = FACE_OUTER_BOUND ( 'NONE', #71, .T. ) ;
#10 = FACE_OUTER_BOUND ( 'NONE', #248, .T. ) ;
#11 = EDGE_CURVE ( 'NONE', #217, #217, #143, .T. ) ;
#12 = FACE_OUTER_BOUND ( 'NONE', #178, .T. ) ;
#13 = AXIS2_PLACEMENT_3D ( 'NONE', #28, #102, #148 ) ;
#14 = DIRECTION ( 'NONE',  ( 3.491481338843133355E-15, -0.0000000000000000000, 1.000000000000000000 ) ) ;
#15 = CARTESIAN_POINT ( 'NONE',  ( 1.117274028429802674E-13, 5.999039130647424958E-32, 32.00000000000000000 ) ) ;
#16 = APPROVAL ( #167, 'UNSPECIFIED' ) ;
#17 = AXIS2_PLACEMENT_3D ( 'NONE', #169, #149, #239 ) ;
#18 = FACE_OUTER_BOUND ( 'NONE', #242, .T. ) ;
#19 = PERSON_AND_ORGANIZATION_ROLE ( 'creator' ) ;
#20 = CC_DESIGN_SECURITY_CLASSIFICATION ( #98, ( #26 ) ) ;
#21 = DIRECTION ( 'NONE',  ( 0.0000000000000000000, 1.000000000000000000, 0.0000000000000000000 ) ) ;
#22 = CONICAL_SURFACE ( 'NONE', #205, 7.999999999999996447, 0.7853981633974480570 ) ;
#23 = ADVANCED_FACE ( 'NONE', ( #30 ), #235, .F. ) ;
#24 = APPLICATION_PROTOCOL_DEFINITION ( 'international standard', 'config_control_design', 1994, #227 ) ;
#25 = ADVANCED_FACE ( 'NONE', ( #35 ), #200, .F. ) ;
#26 = PRODUCT_DEFINITION_FORMATION_WITH_SPECIFIED_SOURCE ( 'ANY', '', #209, .NOT_KNOWN. ) ;
#27 = ORIENTED_EDGE ( 'NONE', *, *, #214, .F. ) ;
#28 = CARTESIAN_POINT ( 'NONE',  ( 3.156299130314193058E-13, -1.107080706429207412E-14, 90.40000000000000568 ) ) ;
#29 = APPROVAL ( #86, 'UNSPECIFIED' ) ;
#30 = FACE_OUTER_BOUND ( 'NONE', #74, .T. ) ;
#31 = DIRECTION ( 'NONE',  ( -3.491481338843133355E-15, 1.224646799147353207E-16, -1.000000000000000000 ) ) ;
#32 = VERTEX_POINT ( 'NONE', #126 ) ;
#33 = CARTESIAN_POINT ( 'NONE',  ( 0.0000000000000000000, 0.0000000000000000000, 0.0000000000000000000 ) ) ;
#34 = CALENDAR_DATE ( 2021, 18, 11 ) ;
#35 = FACE_OUTER_BOUND ( 'NONE', #263, .T. ) ;
#36 = CALENDAR_DATE ( 2021, 18, 11 ) ;
#37 = LOCAL_TIME ( 11, 46, 15.00000000000000000, #70 ) ;
#38 = APPROVAL_DATE_TIME ( #171, #16 ) ;
#39 = CC_DESIGN_DATE_AND_TIME_ASSIGNMENT ( #153, #8, ( #168 ) ) ;
#40 = DIRECTION ( 'NONE',  ( 4.275831445896958607E-31, 1.000000000000000000, 1.224646799147353207E-16 ) ) ;
#41 = EDGE_CURVE ( 'NONE', #128, #128, #155, .T. ) ;
#42 = MECHANICAL_CONTEXT ( 'NONE', #118, 'mechanical' ) ;
#43 = EDGE_LOOP ( 'NONE', ( #122 ) ) ;
#44 = EDGE_LOOP ( 'NONE', ( #4 ) ) ;
#45 = CARTESIAN_POINT ( 'NONE',  ( 3.212162831735682182E-13, 6.399999999999995914, 92.00000000000000000 ) ) ;
#46 = EDGE_LOOP ( 'NONE', ( #232 ) ) ;
#47 = CC_DESIGN_APPROVAL ( #16, ( #98 ) ) ;
#48 = ORIENTED_EDGE ( 'NONE', *, *, #257, .T. ) ;
#49 = ADVANCED_FACE ( 'NONE', ( #9, #10 ), #251, .T. ) ;
#50 = AXIS2_PLACEMENT_3D ( 'NONE', #253, #198, #256 ) ;
#51 = CARTESIAN_POINT ( 'NONE',  ( 1.466422162314116009E-13, -5.143516556418883322E-15, 42.00000000000000000 ) ) ;
#52 = PLANE ( 'NONE',  #226 ) ;
#53 = AXIS2_PLACEMENT_3D ( 'NONE', #105, #56, #147 ) ;
#54 = CARTESIAN_POINT ( 'NONE',  ( 1.117274028429802674E-13, -3.918869757271530263E-15, 32.00000000000000000 ) ) ;
#55 = CARTESIAN_POINT ( 'NONE',  ( 7.000000000000000000, 0.0000000000000000000, -2.530773110989033703E-14 ) ) ;
#56 = DIRECTION ( 'NONE',  ( -3.491481338843133355E-15, 1.224646799147353207E-16, -1.000000000000000000 ) ) ;
#57 = AXIS2_PLACEMENT_3D ( 'NONE', #33, #254, #79 ) ;
#58 = FACE_BOUND ( 'NONE', #210, .T. ) ;
#59 = COORDINATED_UNIVERSAL_TIME_OFFSET ( 1, 0, .AHEAD. ) ;
#60 = CARTESIAN_POINT ( 'NONE',  ( 1.117274028429802674E-13, 5.999039130647424958E-32, 32.00000000000000000 ) ) ;
#61 = PERSON_AND_ORGANIZATION ( #111, #194 ) ;
#62 = ADVANCED_FACE ( 'NONE', ( #160, #12 ), #240, .T. ) ;
#63 = COORDINATED_UNIVERSAL_TIME_OFFSET ( 1, 0, .AHEAD. ) ;
#64 = DIRECTION ( 'NONE',  ( 1.000000000000000000, 0.0000000000000000000, -3.700743415417188731E-15 ) ) ;
#65 = AXIS2_PLACEMENT_3D ( 'NONE', #60, #218, #84 ) ;
#66 = SHAPE_DEFINITION_REPRESENTATION ( #190, #152 ) ;
#67 = CARTESIAN_POINT ( 'NONE',  ( 3.156299130314193058E-13, -1.107080706429207412E-14, 90.40000000000000568 ) ) ;
#68 = CC_DESIGN_PERSON_AND_ORGANIZATION_ASSIGNMENT ( #258, #183, ( #26 ) ) ;
#69 = APPROVAL_ROLE ( '' ) ;
#70 = COORDINATED_UNIVERSAL_TIME_OFFSET ( 1, 0, .AHEAD. ) ;
#71 = EDGE_LOOP ( 'NONE', ( #208 ) ) ;
#72 = CALENDAR_DATE ( 2021, 18, 11 ) ;
#73 = DIRECTION ( 'NONE',  ( -3.491481338843133355E-15, 1.224646799147353207E-16, -1.000000000000000000 ) ) ;
#74 = EDGE_LOOP ( 'NONE', ( #139 ) ) ;
#75 = EDGE_LOOP ( 'NONE', ( #233 ) ) ;
#76 = VERTEX_POINT ( 'NONE', #141 ) ;
#77 = PLANE ( 'NONE',  #109 ) ;
#78 = VERTEX_POINT ( 'NONE', #103 ) ;
#79 = DIRECTION ( 'NONE',  ( 4.275831445896958607E-31, 1.000000000000000000, 1.224646799147353207E-16 ) ) ;
#80 = FACE_OUTER_BOUND ( 'NONE', #6, .T. ) ;
#81 = DESIGN_CONTEXT ( 'detailed design', #227, 'design' ) ;
#82 = DIRECTION ( 'NONE',  ( -1.000000000000000000, 0.0000000000000000000, 3.469446951953614978E-15 ) ) ;
#83 = SECURITY_CLASSIFICATION_LEVEL ( 'unclassified' ) ;
#84 = DIRECTION ( 'NONE',  ( -4.275831445896958607E-31, -1.000000000000000000, -1.224646799147353207E-16 ) ) ;
#85 = APPROVAL_PERSON_ORGANIZATION ( #89, #29, #241 ) ;
#86 = APPROVAL_STATUS ( 'not_yet_approved' ) ;
#87 = CALENDAR_DATE ( 2021, 18, 11 ) ;
#88 = EDGE_CURVE ( 'NONE', #32, #32, #104, .T. ) ;
#89 = PERSON_AND_ORGANIZATION ( #111, #194 ) ;
#90 = CYLINDRICAL_SURFACE ( 'NONE', #129, 8.000000000000000000 ) ;
#91 = CC_DESIGN_APPROVAL ( #29, ( #26 ) ) ;
#92 = CLOSED_SHELL ( 'NONE', ( #49, #119, #23, #108, #243, #25 ) ) ;
#93 = CIRCLE ( 'NONE', #145, 8.000000000000000000 ) ;
#94 = CARTESIAN_POINT ( 'NONE',  ( 0.0000000000000000000, 0.0000000000000000000, 0.0000000000000000000 ) ) ;
#95 = EDGE_CURVE ( 'NONE', #255, #255, #93, .T. ) ;
#96 = PERSON_AND_ORGANIZATION_ROLE ( 'creator' ) ;
#97 = EDGE_CURVE ( 'NONE', #250, #250, #112, .T. ) ;
#98 = SECURITY_CLASSIFICATION ( '', '', #83 ) ;
#99 = ORIENTED_EDGE ( 'NONE', *, *, #257, .F. ) ;
#100 = CIRCLE ( 'NONE', #184, 7.500000000000000000 ) ;
#101 = DIRECTION ( 'NONE',  ( -1.000000000000000000, 0.0000000000000000000, 3.491481338843133355E-15 ) ) ;
#102 = DIRECTION ( 'NONE',  ( -3.491481338843133355E-15, 1.224646799147353207E-16, -1.000000000000000000 ) ) ;
#103 = CARTESIAN_POINT ( 'NONE',  ( 8.000000000000003553, 0.0000000000000000000, 0.9999999999999711342 ) ) ;
#104 = CIRCLE ( 'NONE', #1, 7.999999999999998224 ) ;
#105 = CARTESIAN_POINT ( 'NONE',  ( 3.212162831735682182E-13, -1.126675055215564941E-14, 92.00000000000000000 ) ) ;
#106 = DIRECTION ( 'NONE',  ( 1.000000000000000000, 0.0000000000000000000, -3.496552006265751800E-15 ) ) ;
#107 = CIRCLE ( 'NONE', #13, 7.999999999999996447 ) ;
#108 = ADVANCED_FACE ( 'NONE', ( #221, #201 ), #110, .T. ) ;
#109 = AXIS2_PLACEMENT_3D ( 'NONE', #15, #159, #252 ) ;
#110 = CYLINDRICAL_SURFACE ( 'NONE', #17, 7.500000000000000000 ) ;
#111 = PERSON ( 'UNSPECIFIED', 'UNSPECIFIED', 'UNSPECIFIED', ('UNSPECIFIED'), ('UNSPECIFIED'), ('UNSPECIFIED') ) ;
#112 = CIRCLE ( 'NONE', #53, 6.400000000000007461 ) ;
#113 = PERSON_AND_ORGANIZATION ( #111, #194 ) ;
#114 = DIRECTION ( 'NONE',  ( -3.491481338843133355E-15, 1.224646799147353207E-16, -1.000000000000000000 ) ) ;
#115 = PERSON_AND_ORGANIZATION ( #111, #194 ) ;
#116 = EDGE_LOOP ( 'NONE', ( #193 ) ) ;
#117 =( NAMED_UNIT ( * ) PLANE_ANGLE_UNIT ( ) SI_UNIT ( $, .RADIAN. ) );
#118 = APPLICATION_CONTEXT ( 'configuration controlled 3d designs of mechanical parts and assemblies' ) ;
#119 = ADVANCED_FACE ( 'NONE', ( #58, #223 ), #22, .T. ) ;
#120 = EDGE_LOOP ( 'NONE', ( #142 ) ) ;
#121 = DIRECTION ( 'NONE',  ( 4.275831445896958607E-31, 1.000000000000000000, 1.224646799147353207E-16 ) ) ;
#122 = ORIENTED_EDGE ( 'NONE', *, *, #88, .F. ) ;
#123 = DIRECTION ( 'NONE',  ( 1.000000000000000000, 0.0000000000000000000, -3.700743415417188731E-15 ) ) ;
#124 = DIRECTION ( 'NONE',  ( 3.491481338843133355E-15, -0.0000000000000000000, 1.000000000000000000 ) ) ;
#125 = DIRECTION ( 'NONE',  ( 0.0000000000000000000, 1.000000000000000000, 0.0000000000000000000 ) ) ;
#126 = CARTESIAN_POINT ( 'NONE',  ( -7.999999999999850786, -5.143516556418883322E-15, 42.00000000000002842 ) ) ;
#127 = CARTESIAN_POINT ( 'NONE',  ( 3.491481338843130200E-15, 0.0000000000000000000, 0.9999999999999991118 ) ) ;
#128 = VERTEX_POINT ( 'NONE', #55 ) ;
#129 = AXIS2_PLACEMENT_3D ( 'NONE', #94, #133, #40 ) ;
#130 = DIRECTION ( 'NONE',  ( 3.491481338843133355E-15, -0.0000000000000000000, 1.000000000000000000 ) ) ;
#131 =( GEOMETRIC_REPRESENTATION_CONTEXT ( 3 ) GLOBAL_UNCERTAINTY_ASSIGNED_CONTEXT ( ( #181 ) ) GLOBAL_UNIT_ASSIGNED_CONTEXT ( ( #162, #117, #180 ) ) REPRESENTATION_CONTEXT ( 'NONE', 'WORKASPACE' ) );
#132 = FACE_OUTER_BOUND ( 'NONE', #2, .T. ) ;
#133 = DIRECTION ( 'NONE',  ( -3.491481338843133355E-15, 1.224646799147353207E-16, -1.000000000000000000 ) ) ;
#134 = ADVANCED_FACE ( 'NONE', ( #132, #18 ), #90, .T. ) ;
#135 = LOCAL_TIME ( 11, 46, 15.00000000000000000, #63 ) ;
#136 = MANIFOLD_SOLID_BREP ( 'Corps-Déplacer/Copier1[2]', #215 ) ;
#137 = DIRECTION ( 'NONE',  ( 1.000000000000000000, 0.0000000000000000000, 0.0000000000000000000 ) ) ;
#138 = AXIS2_PLACEMENT_3D ( 'NONE', #234, #124, #106 ) ;
#139 = ORIENTED_EDGE ( 'NONE', *, *, #97, .F. ) ;
#140 = ORIENTED_EDGE ( 'NONE', *, *, #95, .T. ) ;
#141 = CARTESIAN_POINT ( 'NONE',  ( 3.156299130314193058E-13, 7.999999999999986677, 90.40000000000000568 ) ) ;
#142 = ORIENTED_EDGE ( 'NONE', *, *, #146, .T. ) ;
#143 = CIRCLE ( 'NONE', #177, 7.500000000000000000 ) ;
#144 = DIRECTION ( 'NONE',  ( 1.000000000000000000, 0.0000000000000000000, -3.491481338843133355E-15 ) ) ;
#145 = AXIS2_PLACEMENT_3D ( 'NONE', #54, #31, #125 ) ;
#146 = EDGE_CURVE ( 'NONE', #156, #156, #100, .T. ) ;
#147 = DIRECTION ( 'NONE',  ( 0.0000000000000000000, 1.000000000000000000, 0.0000000000000000000 ) ) ;
#148 = DIRECTION ( 'NONE',  ( 0.0000000000000000000, 1.000000000000000000, 0.0000000000000000000 ) ) ;
#149 = DIRECTION ( 'NONE',  ( 3.491481338843133355E-15, -0.0000000000000000000, 1.000000000000000000 ) ) ;
#150 = LOCAL_TIME ( 11, 46, 15.00000000000000000, #59 ) ;
#151 = CALENDAR_DATE ( 2021, 18, 11 ) ;
#152 = ADVANCED_BREP_SHAPE_REPRESENTATION ( '339059', ( #211, #136, #204 ), #131 ) ;
#153 = DATE_AND_TIME ( #72, #37 ) ;
#154 = EDGE_LOOP ( 'NONE', ( #27 ) ) ;
#155 = CIRCLE ( 'NONE', #186, 7.000000000000000000 ) ;
#156 = VERTEX_POINT ( 'NONE', #231 ) ;
#157 = DATE_AND_TIME ( #151, #3 ) ;
#158 = ORIENTED_EDGE ( 'NONE', *, *, #95, .F. ) ;
#159 = DIRECTION ( 'NONE',  ( 3.491481338843133355E-15, -1.224646799147353207E-16, 1.000000000000000000 ) ) ;
#160 = FACE_OUTER_BOUND ( 'NONE', #75, .T. ) ;
#161 = FACE_OUTER_BOUND ( 'NONE', #43, .T. ) ;
#162 =( LENGTH_UNIT ( ) NAMED_UNIT ( * ) SI_UNIT ( .MILLI., .METRE. ) );
#163 = CC_DESIGN_PERSON_AND_ORGANIZATION_ASSIGNMENT ( #260, #207, ( #209 ) ) ;
#164 = DIRECTION ( 'NONE',  ( -3.491481338843133355E-15, 0.0000000000000000000, -1.000000000000000000 ) ) ;
#165 = DIRECTION ( 'NONE',  ( 3.491481338843133355E-15, -0.0000000000000000000, 1.000000000000000000 ) ) ;
#166 = CARTESIAN_POINT ( 'NONE',  ( 1.117274028429802674E-13, 7.999999999999996447, 32.00000000000000000 ) ) ;
#167 = APPROVAL_STATUS ( 'not_yet_approved' ) ;
#168 = PRODUCT_DEFINITION ( 'UNKNOWN', '', #26, #81 ) ;
#169 = CARTESIAN_POINT ( 'NONE',  ( -1.282749433769087757E-30, 0.0000000000000000000, -3.673940397442059868E-16 ) ) ;
#170 = DATE_AND_TIME ( #34, #150 ) ;
#171 = DATE_AND_TIME ( #87, #135 ) ;
#172 = DATE_TIME_ROLE ( 'classification_date' ) ;
#173 = CC_DESIGN_PERSON_AND_ORGANIZATION_ASSIGNMENT ( #61, #225, ( #98 ) ) ;
#174 = FACE_OUTER_BOUND ( 'NONE', #116, .T. ) ;
#175 = APPROVAL_STATUS ( 'not_yet_approved' ) ;
#176 = CC_DESIGN_APPROVAL ( #196, ( #168 ) ) ;
#177 = AXIS2_PLACEMENT_3D ( 'NONE', #179, #216, #123 ) ;
#178 = EDGE_LOOP ( 'NONE', ( #99 ) ) ;
#179 = CARTESIAN_POINT ( 'NONE',  ( 1.466422162314116009E-13, 0.0000000000000000000, 42.00000000000000000 ) ) ;
#180 =( NAMED_UNIT ( * ) SI_UNIT ( $, .STERADIAN. ) SOLID_ANGLE_UNIT ( ) );
#181 = UNCERTAINTY_MEASURE_WITH_UNIT (LENGTH_MEASURE( 1.000000000000000082E-05 ), #162, 'distance_accuracy_value', 'NONE');
#182 = CARTESIAN_POINT ( 'NONE',  ( -3.028377322213058170E-30, 0.0000000000000000000, -8.673617379884035472E-16 ) ) ;
#183 = PERSON_AND_ORGANIZATION_ROLE ( 'design_supplier' ) ;
#184 = AXIS2_PLACEMENT_3D ( 'NONE', #245, #189, #64 ) ;
#185 = COORDINATED_UNIVERSAL_TIME_OFFSET ( 1, 0, .AHEAD. ) ;
#186 = AXIS2_PLACEMENT_3D ( 'NONE', #182, #165, #236 ) ;
#187 = DIRECTION ( 'NONE',  ( 0.0000000000000000000, 0.0000000000000000000, 1.000000000000000000 ) ) ;
#188 = PRODUCT_RELATED_PRODUCT_CATEGORY ( 'detail', '', ( #209 ) ) ;
#189 = DIRECTION ( 'NONE',  ( 3.491481338843133355E-15, -0.0000000000000000000, 1.000000000000000000 ) ) ;
#190 = PRODUCT_DEFINITION_SHAPE ( 'NONE', 'NONE',  #168 ) ;
#191 = APPROVAL_DATE_TIME ( #157, #196 ) ;
#192 = ADVANCED_FACE ( 'NONE', ( #174 ), #261, .T. ) ;
#193 = ORIENTED_EDGE ( 'NONE', *, *, #41, .F. ) ;
#194 = ORGANIZATION ( 'UNSPECIFIED', 'UNSPECIFIED', '' ) ;
#195 = FACE_BOUND ( 'NONE', #46, .T. ) ;
#196 = APPROVAL ( #175, 'UNSPECIFIED' ) ;
#197 = CARTESIAN_POINT ( 'NONE',  ( 0.0000000000000000000, 0.0000000000000000000, 0.0000000000000000000 ) ) ;
#198 = DIRECTION ( 'NONE',  ( -3.491481338843133355E-15, 1.224646799147353207E-16, -1.000000000000000000 ) ) ;
#199 = CARTESIAN_POINT ( 'NONE',  ( 7.500000000000146549, 0.0000000000000000000, 41.99999999999997158 ) ) ;
#200 = PLANE ( 'NONE',  #65 ) ;
#201 = FACE_OUTER_BOUND ( 'NONE', #44, .T. ) ;
#202 = CC_DESIGN_DATE_AND_TIME_ASSIGNMENT ( #259, #172, ( #98 ) ) ;
#203 = AXIS2_PLACEMENT_3D ( 'NONE', #7, #73, #121 ) ;
#204 = AXIS2_PLACEMENT_3D ( 'NONE', #197, #187, #137 ) ;
#205 = AXIS2_PLACEMENT_3D ( 'NONE', #67, #114, #21 ) ;
#206 = APPLICATION_PROTOCOL_DEFINITION ( 'international standard', 'config_control_design', 1994, #118 ) ;
#207 = PERSON_AND_ORGANIZATION_ROLE ( 'design_owner' ) ;
#208 = ORIENTED_EDGE ( 'NONE', *, *, #214, .T. ) ;
#209 = PRODUCT ( '339059', '339059', '', ( #42 ) ) ;
#210 = EDGE_LOOP ( 'NONE', ( #249 ) ) ;
#211 = MANIFOLD_SOLID_BREP ( 'Corps-Déplacer/Copier1[1]', #92 ) ;
#212 = ORIENTED_EDGE ( 'NONE', *, *, #88, .T. ) ;
#213 = LOCAL_TIME ( 11, 46, 15.00000000000000000, #185 ) ;
#214 = EDGE_CURVE ( 'NONE', #76, #76, #107, .T. ) ;
#215 = CLOSED_SHELL ( 'NONE', ( #134, #237, #62, #192 ) ) ;
#216 = DIRECTION ( 'NONE',  ( 3.491481338843133355E-15, -0.0000000000000000000, 1.000000000000000000 ) ) ;
#217 = VERTEX_POINT ( 'NONE', #199 ) ;
#218 = DIRECTION ( 'NONE',  ( 3.491481338843133355E-15, -1.224646799147353207E-16, 1.000000000000000000 ) ) ;
#219 = CARTESIAN_POINT ( 'NONE',  ( 1.466422162314116009E-13, 8.999999999999994671, 42.00000000000000000 ) ) ;
#220 = CIRCLE ( 'NONE', #138, 8.000000000000000000 ) ;
#221 = FACE_OUTER_BOUND ( 'NONE', #120, .T. ) ;
#222 = CC_DESIGN_PERSON_AND_ORGANIZATION_ASSIGNMENT ( #262, #96, ( #168 ) ) ;
#223 = FACE_OUTER_BOUND ( 'NONE', #154, .T. ) ;
#224 = ORIENTED_EDGE ( 'NONE', *, *, #146, .F. ) ;
#225 = PERSON_AND_ORGANIZATION_ROLE ( 'classification_officer' ) ;
#226 = AXIS2_PLACEMENT_3D ( 'NONE', #219, #164, #101 ) ;
#227 = APPLICATION_CONTEXT ( 'configuration controlled 3d designs of mechanical parts and assemblies' ) ;
#228 = COORDINATED_UNIVERSAL_TIME_OFFSET ( 1, 0, .AHEAD. ) ;
#229 = APPROVAL_PERSON_ORGANIZATION ( #115, #196, #69 ) ;
#230 = APPROVAL_PERSON_ORGANIZATION ( #246, #16, #238 ) ;
#231 = CARTESIAN_POINT ( 'NONE',  ( 7.500000000000111910, 0.0000000000000000000, 31.99999999999997158 ) ) ;
#232 = ORIENTED_EDGE ( 'NONE', *, *, #11, .T. ) ;
#233 = ORIENTED_EDGE ( 'NONE', *, *, #41, .T. ) ;
#234 = CARTESIAN_POINT ( 'NONE',  ( 3.491481338843130200E-15, 0.0000000000000000000, 0.9999999999999991118 ) ) ;
#235 = PLANE ( 'NONE',  #50 ) ;
#236 = DIRECTION ( 'NONE',  ( 1.000000000000000000, 0.0000000000000000000, -3.491481338843133355E-15 ) ) ;
#237 = ADVANCED_FACE ( 'NONE', ( #80 ), #77, .T. ) ;
#238 = APPROVAL_ROLE ( '' ) ;
#239 = DIRECTION ( 'NONE',  ( 1.000000000000000000, 0.0000000000000000000, -3.491481338843133355E-15 ) ) ;
#240 = TOROIDAL_SURFACE ( 'NONE', #5, 7.000000000000000000, 1.000000000000000000 ) ;
#241 = APPROVAL_ROLE ( '' ) ;
#242 = EDGE_LOOP ( 'NONE', ( #140 ) ) ;
#243 = ADVANCED_FACE ( 'NONE', ( #161, #195 ), #52, .T. ) ;
#244 = APPROVAL_DATE_TIME ( #170, #29 ) ;
#245 = CARTESIAN_POINT ( 'NONE',  ( 1.117274028429802674E-13, 0.0000000000000000000, 32.00000000000000000 ) ) ;
#246 = PERSON_AND_ORGANIZATION ( #111, #194 ) ;
#247 = CC_DESIGN_PERSON_AND_ORGANIZATION_ASSIGNMENT ( #113, #19, ( #26 ) ) ;
#248 = EDGE_LOOP ( 'NONE', ( #212 ) ) ;
#249 = ORIENTED_EDGE ( 'NONE', *, *, #97, .T. ) ;
#250 = VERTEX_POINT ( 'NONE', #45 ) ;
#251 = CYLINDRICAL_SURFACE ( 'NONE', #57, 7.999999999999998224 ) ;
#252 = DIRECTION ( 'NONE',  ( -4.275831445896958607E-31, -1.000000000000000000, -1.224646799147353207E-16 ) ) ;
#253 = CARTESIAN_POINT ( 'NONE',  ( 3.212162831735682182E-13, 4.799231304517932850E-32, 92.00000000000000000 ) ) ;
#254 = DIRECTION ( 'NONE',  ( -3.491481338843133355E-15, 1.224646799147353207E-16, -1.000000000000000000 ) ) ;
#255 = VERTEX_POINT ( 'NONE', #166 ) ;
#256 = DIRECTION ( 'NONE',  ( 4.275831445896958607E-31, 1.000000000000000000, 1.224646799147353207E-16 ) ) ;
#257 = EDGE_CURVE ( 'NONE', #78, #78, #220, .T. ) ;
#258 = PERSON_AND_ORGANIZATION ( #111, #194 ) ;
#259 = DATE_AND_TIME ( #36, #213 ) ;
#260 = PERSON_AND_ORGANIZATION ( #111, #194 ) ;
#261 = PLANE ( 'NONE',  #203 ) ;
#262 = PERSON_AND_ORGANIZATION ( #111, #194 ) ;
#263 = EDGE_LOOP ( 'NONE', ( #224 ) ) ;
ENDSEC;
END-ISO-10303-21;
