ISO-10303-21;
HEADER;
FILE_DESCRIPTION (( 'STEP AP203' ),
    '1' );
FILE_NAME ('339058.step',
    '2021-11-18T10:46:15',
    ( '' ),
    ( '' ),
    'SwSTEP 2.0',
    'SolidWorks 2019',
    '' );
FILE_SCHEMA (( 'CONFIG_CONTROL_DESIGN' ));
ENDSEC;

DATA;
#1 = ORIENTED_EDGE ( 'NONE', *, *, #115, .T. ) ;
#2 = CYLINDRICAL_SURFACE ( 'NONE', #228, 6.000000000000000888 ) ;
#3 = AXIS2_PLACEMENT_3D ( 'NONE', #23, #43, #130 ) ;
#4 = EDGE_LOOP ( 'NONE', ( #55 ) ) ;
#5 = DIRECTION ( 'NONE',  ( 1.000000000000000000, 0.0000000000000000000, 0.0000000000000000000 ) ) ;
#6 = DATE_TIME_ROLE ( 'creation_date' ) ;
#7 = CALENDAR_DATE ( 2021, 18, 11 ) ;
#8 = CONICAL_SURFACE ( 'NONE', #222, 6.000000000000001776, 0.7853981633974511656 ) ;
#9 = DIRECTION ( 'NONE',  ( -3.491481338843133355E-15, 1.224646799147353207E-16, -1.000000000000000000 ) ) ;
#10 = DIRECTION ( 'NONE',  ( 3.491481338843133355E-15, -0.0000000000000000000, 1.000000000000000000 ) ) ;
#11 = APPLICATION_PROTOCOL_DEFINITION ( 'international standard', 'config_control_design', 1994, #213 ) ;
#12 = ORIENTED_EDGE ( 'NONE', *, *, #115, .F. ) ;
#13 = FACE_BOUND ( 'NONE', #87, .T. ) ;
#14 = AXIS2_PLACEMENT_3D ( 'NONE', #225, #245, #155 ) ;
#15 = DIRECTION ( 'NONE',  ( 4.275831445896958607E-31, 1.000000000000000000, 1.224646799147353207E-16 ) ) ;
#16 = DESIGN_CONTEXT ( 'detailed design', #213, 'design' ) ;
#17 = CLOSED_SHELL ( 'NONE', ( #246, #101, #138, #44, #184, #62 ) ) ;
#18 = PRODUCT_RELATED_PRODUCT_CATEGORY ( 'detail', '', ( #142 ) ) ;
#19 = DIRECTION ( 'NONE',  ( 3.491481338843133355E-15, -0.0000000000000000000, 1.000000000000000000 ) ) ;
#20 =( GEOMETRIC_REPRESENTATION_CONTEXT ( 3 ) GLOBAL_UNCERTAINTY_ASSIGNED_CONTEXT ( ( #209 ) ) GLOBAL_UNIT_ASSIGNED_CONTEXT ( ( #212, #189, #103 ) ) REPRESENTATION_CONTEXT ( 'NONE', 'WORKASPACE' ) );
#21 = FACE_BOUND ( 'NONE', #139, .T. ) ;
#22 = EDGE_CURVE ( 'NONE', #42, #42, #132, .T. ) ;
#23 = CARTESIAN_POINT ( 'NONE',  ( 1.291848095371958963E-13, 6.999999999999997335, 36.99999999999999289 ) ) ;
#24 = CARTESIAN_POINT ( 'NONE',  ( 2.856031735173682958E-13, 5.999999999999991118, 81.79999999999999716 ) ) ;
#25 = APPROVAL_STATUS ( 'not_yet_approved' ) ;
#26 = DATE_AND_TIME ( #216, #158 ) ;
#27 = PERSON_AND_ORGANIZATION ( #41, #211 ) ;
#28 = DATE_AND_TIME ( #91, #111 ) ;
#29 = CC_DESIGN_APPROVAL ( #84, ( #120 ) ) ;
#30 = SECURITY_CLASSIFICATION ( '', '', #113 ) ;
#31 = DIRECTION ( 'NONE',  ( 3.491481338843133355E-15, -1.224646799147353207E-16, 1.000000000000000000 ) ) ;
#32 = APPROVAL ( #238, 'UNSPECIFIED' ) ;
#33 = APPROVAL_ROLE ( '' ) ;
#34 = EDGE_LOOP ( 'NONE', ( #1 ) ) ;
#35 = DIRECTION ( 'NONE',  ( 4.275831445896958607E-31, 1.000000000000000000, 1.224646799147353207E-16 ) ) ;
#36 = CARTESIAN_POINT ( 'NONE',  ( 2.897929511239800306E-13, 1.735533076592498547E-30, 82.99999999999998579 ) ) ;
#37 = PRODUCT_DEFINITION_SHAPE ( 'NONE', 'NONE',  #120 ) ;
#38 = AXIS2_PLACEMENT_3D ( 'NONE', #136, #100, #226 ) ;
#39 = DIRECTION ( 'NONE',  ( 3.491481338843133355E-15, -0.0000000000000000000, 1.000000000000000000 ) ) ;
#40 = DIRECTION ( 'NONE',  ( 1.000000000000000000, 0.0000000000000000000, -3.784851220313033947E-15 ) ) ;
#41 = PERSON ( 'UNSPECIFIED', 'UNSPECIFIED', 'UNSPECIFIED', ('UNSPECIFIED'), ('UNSPECIFIED'), ('UNSPECIFIED') ) ;
#42 = VERTEX_POINT ( 'NONE', #109 ) ;
#43 = DIRECTION ( 'NONE',  ( -3.491481338843133355E-15, 0.0000000000000000000, -1.000000000000000000 ) ) ;
#44 = ADVANCED_FACE ( 'NONE', ( #143, #96 ), #76, .T. ) ;
#45 = PERSON_AND_ORGANIZATION_ROLE ( 'creator' ) ;
#46 = AXIS2_PLACEMENT_3D ( 'NONE', #180, #31, #50 ) ;
#47 = PERSON_AND_ORGANIZATION ( #41, #211 ) ;
#48 = PERSON_AND_ORGANIZATION ( #41, #211 ) ;
#49 = CC_DESIGN_PERSON_AND_ORGANIZATION_ASSIGNMENT ( #47, #223, ( #59 ) ) ;
#50 = DIRECTION ( 'NONE',  ( -4.275831445896958607E-31, -1.000000000000000000, -1.224646799147353207E-16 ) ) ;
#51 = CC_DESIGN_APPROVAL ( #32, ( #30 ) ) ;
#52 = PERSON_AND_ORGANIZATION ( #41, #211 ) ;
#53 = CIRCLE ( 'NONE', #207, 6.000000000000001776 ) ;
#54 = CARTESIAN_POINT ( 'NONE',  ( -4.542565983319587431E-30, 0.0000000000000000000, -1.301042606982605321E-15 ) ) ;
#55 = ORIENTED_EDGE ( 'NONE', *, *, #231, .F. ) ;
#56 = FACE_OUTER_BOUND ( 'NONE', #149, .T. ) ;
#57 = ADVANCED_FACE ( 'NONE', ( #162 ), #221, .T. ) ;
#58 = FACE_OUTER_BOUND ( 'NONE', #190, .T. ) ;
#59 = PRODUCT_DEFINITION_FORMATION_WITH_SPECIFIED_SOURCE ( 'ANY', '', #142, .NOT_KNOWN. ) ;
#60 = DIRECTION ( 'NONE',  ( 4.275831445896959482E-31, 1.000000000000000000, 1.224646799147353207E-16 ) ) ;
#61 = CARTESIAN_POINT ( 'NONE',  ( 1.047444401652939533E-14, 0.0000000000000000000, 2.999999999999998668 ) ) ;
#62 = ADVANCED_FACE ( 'NONE', ( #56 ), #78, .F. ) ;
#63 = EDGE_LOOP ( 'NONE', ( #193 ) ) ;
#64 = VERTEX_POINT ( 'NONE', #145 ) ;
#65 = DIRECTION ( 'NONE',  ( 1.000000000000000000, 0.0000000000000000000, -3.491481338843133355E-15 ) ) ;
#66 = ORIENTED_EDGE ( 'NONE', *, *, #156, .T. ) ;
#67 = CC_DESIGN_PERSON_AND_ORGANIZATION_ASSIGNMENT ( #27, #45, ( #120 ) ) ;
#68 = COORDINATED_UNIVERSAL_TIME_OFFSET ( 1, 0, .AHEAD. ) ;
#69 = ORIENTED_EDGE ( 'NONE', *, *, #231, .T. ) ;
#70 = AXIS2_PLACEMENT_3D ( 'NONE', #36, #114, #35 ) ;
#71 = APPROVAL_ROLE ( '' ) ;
#72 = EDGE_LOOP ( 'NONE', ( #205 ) ) ;
#73 = APPLICATION_CONTEXT ( 'configuration controlled 3d designs of mechanical parts and assemblies' ) ;
#74 = FACE_OUTER_BOUND ( 'NONE', #172, .T. ) ;
#75 = APPROVAL_DATE_TIME ( #26, #105 ) ;
#76 = CYLINDRICAL_SURFACE ( 'NONE', #38, 5.500000000000000000 ) ;
#77 = MANIFOLD_SOLID_BREP ( 'Corps-Déplacer/Copier1[1]', #17 ) ;
#78 = PLANE ( 'NONE',  #128 ) ;
#79 = ADVANCED_FACE ( 'NONE', ( #58, #159 ), #255, .T. ) ;
#80 = CARTESIAN_POINT ( 'NONE',  ( 1.047444401652939533E-14, 0.0000000000000000000, 2.999999999999998668 ) ) ;
#81 = CARTESIAN_POINT ( 'NONE',  ( 2.897929511239800306E-13, 4.799999999999991829, 82.99999999999998579 ) ) ;
#82 = AXIS2_PLACEMENT_3D ( 'NONE', #140, #197, #15 ) ;
#83 = CARTESIAN_POINT ( 'NONE',  ( 1.291848095371958963E-13, -4.531193156845206004E-15, 36.99999999999999289 ) ) ;
#84 = APPROVAL ( #25, 'UNSPECIFIED' ) ;
#85 = CARTESIAN_POINT ( 'NONE',  ( 5.500000000000090594, 0.0000000000000000000, 25.99999999999997868 ) ) ;
#86 = FACE_OUTER_BOUND ( 'NONE', #259, .T. ) ;
#87 = EDGE_LOOP ( 'NONE', ( #229 ) ) ;
#88 = DIRECTION ( 'NONE',  ( 1.000000000000000000, 0.0000000000000000000, -3.784851220313033947E-15 ) ) ;
#89 = ORIENTED_EDGE ( 'NONE', *, *, #214, .F. ) ;
#90 = MECHANICAL_CONTEXT ( 'NONE', #73, 'mechanical' ) ;
#91 = CALENDAR_DATE ( 2021, 18, 11 ) ;
#92 = CC_DESIGN_PERSON_AND_ORGANIZATION_ASSIGNMENT ( #249, #215, ( #59 ) ) ;
#93 = APPROVAL_PERSON_ORGANIZATION ( #175, #32, #71 ) ;
#94 = PLANE ( 'NONE',  #70 ) ;
#95 = PERSON_AND_ORGANIZATION_ROLE ( 'classification_officer' ) ;
#96 = FACE_OUTER_BOUND ( 'NONE', #176, .T. ) ;
#97 = COORDINATED_UNIVERSAL_TIME_OFFSET ( 1, 0, .AHEAD. ) ;
#98 = ORIENTED_EDGE ( 'NONE', *, *, #156, .F. ) ;
#99 = DIRECTION ( 'NONE',  ( 1.000000000000000000, 0.0000000000000000000, -3.491481338843133355E-15 ) ) ;
#100 = DIRECTION ( 'NONE',  ( 3.491481338843133355E-15, -0.0000000000000000000, 1.000000000000000000 ) ) ;
#101 = ADVANCED_FACE ( 'NONE', ( #13, #123 ), #8, .T. ) ;
#102 = LOCAL_TIME ( 11, 46, 15.00000000000000000, #97 ) ;
#103 =( NAMED_UNIT ( * ) SI_UNIT ( $, .STERADIAN. ) SOLID_ANGLE_UNIT ( ) );
#104 = DIRECTION ( 'NONE',  ( -3.491481338843133355E-15, 1.224646799147353207E-16, -1.000000000000000000 ) ) ;
#105 = APPROVAL ( #133, 'UNSPECIFIED' ) ;
#106 = AXIS2_PLACEMENT_3D ( 'NONE', #232, #210, #88 ) ;
#107 = FACE_OUTER_BOUND ( 'NONE', #173, .T. ) ;
#108 = VERTEX_POINT ( 'NONE', #24 ) ;
#109 = CARTESIAN_POINT ( 'NONE',  ( 6.000000000000010658, 0.0000000000000000000, 2.999999999999977796 ) ) ;
#110 = EDGE_LOOP ( 'NONE', ( #98 ) ) ;
#111 = LOCAL_TIME ( 11, 46, 15.00000000000000000, #68 ) ;
#112 = APPROVAL_DATE_TIME ( #135, #84 ) ;
#113 = SECURITY_CLASSIFICATION_LEVEL ( 'unclassified' ) ;
#114 = DIRECTION ( 'NONE',  ( -3.491481338843133355E-15, 1.224646799147353207E-16, -1.000000000000000000 ) ) ;
#115 = EDGE_CURVE ( 'NONE', #233, #233, #168, .T. ) ;
#116 = AXIS2_PLACEMENT_3D ( 'NONE', #83, #19, #167 ) ;
#117 = DATE_AND_TIME ( #196, #102 ) ;
#118 = DIRECTION ( 'NONE',  ( 3.491481338843133355E-15, -1.224646799147353207E-16, 1.000000000000000000 ) ) ;
#119 = DIRECTION ( 'NONE',  ( 0.0000000000000000000, 1.000000000000000000, 0.0000000000000000000 ) ) ;
#120 = PRODUCT_DEFINITION ( 'UNKNOWN', '', #59, #16 ) ;
#121 = ORIENTED_EDGE ( 'NONE', *, *, #257, .F. ) ;
#122 = CIRCLE ( 'NONE', #144, 4.800000000000002487 ) ;
#123 = FACE_OUTER_BOUND ( 'NONE', #72, .T. ) ;
#124 = CC_DESIGN_DATE_AND_TIME_ASSIGNMENT ( #28, #6, ( #120 ) ) ;
#125 = CIRCLE ( 'NONE', #227, 3.000000000000000444 ) ;
#126 = CARTESIAN_POINT ( 'NONE',  ( 9.077851480992146724E-14, 0.0000000000000000000, 26.00000000000000000 ) ) ;
#127 = VERTEX_POINT ( 'NONE', #171 ) ;
#128 = AXIS2_PLACEMENT_3D ( 'NONE', #183, #118, #241 ) ;
#129 = VERTEX_POINT ( 'NONE', #85 ) ;
#130 = DIRECTION ( 'NONE',  ( -1.000000000000000000, 0.0000000000000000000, 3.491481338843133355E-15 ) ) ;
#131 = EDGE_LOOP ( 'NONE', ( #12 ) ) ;
#132 = CIRCLE ( 'NONE', #243, 6.000000000000000000 ) ;
#133 = APPROVAL_STATUS ( 'not_yet_approved' ) ;
#134 = CC_DESIGN_PERSON_AND_ORGANIZATION_ASSIGNMENT ( #48, #220, ( #142 ) ) ;
#135 = DATE_AND_TIME ( #151, #258 ) ;
#136 = CARTESIAN_POINT ( 'NONE',  ( -1.282749433769087757E-30, 0.0000000000000000000, -3.673940397442059868E-16 ) ) ;
#137 = PERSON_AND_ORGANIZATION ( #41, #211 ) ;
#138 = ADVANCED_FACE ( 'NONE', ( #74 ), #94, .F. ) ;
#139 = EDGE_LOOP ( 'NONE', ( #236 ) ) ;
#140 = CARTESIAN_POINT ( 'NONE',  ( -1.282749433769087757E-30, 4.499279347985572824E-32, -3.673940397442059868E-16 ) ) ;
#141 = EDGE_CURVE ( 'NONE', #108, #108, #53, .T. ) ;
#142 = PRODUCT ( '339058', '339058', '', ( #90 ) ) ;
#143 = FACE_OUTER_BOUND ( 'NONE', #63, .T. ) ;
#144 = AXIS2_PLACEMENT_3D ( 'NONE', #178, #104, #262 ) ;
#145 = CARTESIAN_POINT ( 'NONE',  ( 5.500000000000128786, 0.0000000000000000000, 36.99999999999997868 ) ) ;
#146 = CARTESIAN_POINT ( 'NONE',  ( 0.0000000000000000000, 0.0000000000000000000, 0.0000000000000000000 ) ) ;
#147 = FACE_OUTER_BOUND ( 'NONE', #4, .T. ) ;
#148 = CIRCLE ( 'NONE', #116, 6.000000000000000888 ) ;
#149 = EDGE_LOOP ( 'NONE', ( #121 ) ) ;
#150 = FACE_OUTER_BOUND ( 'NONE', #248, .T. ) ;
#151 = CALENDAR_DATE ( 2021, 18, 11 ) ;
#152 = ORIENTED_EDGE ( 'NONE', *, *, #22, .T. ) ;
#153 = DATE_AND_TIME ( #7, #187 ) ;
#154 = COORDINATED_UNIVERSAL_TIME_OFFSET ( 1, 0, .AHEAD. ) ;
#155 = DIRECTION ( 'NONE',  ( 4.275831445896959482E-31, 1.000000000000000000, 1.224646799147353207E-16 ) ) ;
#156 = EDGE_CURVE ( 'NONE', #263, #263, #125, .T. ) ;
#157 = CARTESIAN_POINT ( 'NONE',  ( 2.856031735173682958E-13, -1.001761081702534806E-14, 81.79999999999999716 ) ) ;
#158 = LOCAL_TIME ( 11, 46, 15.00000000000000000, #252 ) ;
#159 = FACE_OUTER_BOUND ( 'NONE', #34, .T. ) ;
#160 = DIRECTION ( 'NONE',  ( -3.491481338843133355E-15, 1.224646799147353207E-16, -1.000000000000000000 ) ) ;
#161 = AXIS2_PLACEMENT_3D ( 'NONE', #250, #235, #5 ) ;
#162 = FACE_OUTER_BOUND ( 'NONE', #131, .T. ) ;
#163 = ADVANCED_FACE ( 'NONE', ( #182 ), #256, .T. ) ;
#164 = MANIFOLD_SOLID_BREP ( 'Corps-Déplacer/Copier1[2]', #203 ) ;
#165 = AXIS2_PLACEMENT_3D ( 'NONE', #254, #9, #237 ) ;
#166 = FACE_OUTER_BOUND ( 'NONE', #242, .T. ) ;
#167 = DIRECTION ( 'NONE',  ( -1.000000000000000000, 0.0000000000000000000, 3.469446951953613794E-15 ) ) ;
#168 = CIRCLE ( 'NONE', #165, 6.000000000000000000 ) ;
#169 = ORIENTED_EDGE ( 'NONE', *, *, #22, .F. ) ;
#170 = CC_DESIGN_APPROVAL ( #105, ( #59 ) ) ;
#171 = CARTESIAN_POINT ( 'NONE',  ( -5.999999999999872102, -4.531193156845206004E-15, 37.00000000000001421 ) ) ;
#172 = EDGE_LOOP ( 'NONE', ( #202 ) ) ;
#173 = EDGE_LOOP ( 'NONE', ( #169 ) ) ;
#174 = EDGE_CURVE ( 'NONE', #185, #185, #122, .T. ) ;
#175 = PERSON_AND_ORGANIZATION ( #41, #211 ) ;
#176 = EDGE_LOOP ( 'NONE', ( #89 ) ) ;
#177 = APPROVAL_DATE_TIME ( #153, #32 ) ;
#178 = CARTESIAN_POINT ( 'NONE',  ( 2.897929511239800306E-13, -1.016456843292302992E-14, 82.99999999999998579 ) ) ;
#179 = DIRECTION ( 'NONE',  ( 0.0000000000000000000, 1.000000000000000000, 0.0000000000000000000 ) ) ;
#180 = CARTESIAN_POINT ( 'NONE',  ( 9.077851480992146724E-14, 4.499279347985567350E-32, 26.00000000000000000 ) ) ;
#181 = AXIS2_PLACEMENT_3D ( 'NONE', #126, #230, #40 ) ;
#182 = FACE_OUTER_BOUND ( 'NONE', #110, .T. ) ;
#183 = CARTESIAN_POINT ( 'NONE',  ( 9.077851480992146724E-14, 4.499279347985567350E-32, 26.00000000000000000 ) ) ;
#184 = ADVANCED_FACE ( 'NONE', ( #147, #21 ), #186, .T. ) ;
#185 = VERTEX_POINT ( 'NONE', #81 ) ;
#186 = PLANE ( 'NONE',  #3 ) ;
#187 = LOCAL_TIME ( 11, 46, 15.00000000000000000, #154 ) ;
#188 = DIRECTION ( 'NONE',  ( -3.491481338843133355E-15, 1.224646799147353207E-16, -1.000000000000000000 ) ) ;
#189 =( NAMED_UNIT ( * ) PLANE_ANGLE_UNIT ( ) SI_UNIT ( $, .RADIAN. ) );
#190 = EDGE_LOOP ( 'NONE', ( #152 ) ) ;
#191 = CARTESIAN_POINT ( 'NONE',  ( 3.000000000000000444, 0.0000000000000000000, -1.177548662351200696E-14 ) ) ;
#192 = CIRCLE ( 'NONE', #106, 5.500000000000000000 ) ;
#193 = ORIENTED_EDGE ( 'NONE', *, *, #257, .T. ) ;
#194 = PERSON_AND_ORGANIZATION ( #41, #211 ) ;
#195 = DATE_TIME_ROLE ( 'classification_date' ) ;
#196 = CALENDAR_DATE ( 2021, 18, 11 ) ;
#197 = DIRECTION ( 'NONE',  ( -3.491481338843133355E-15, 1.224646799147353207E-16, -1.000000000000000000 ) ) ;
#198 = APPROVAL_PERSON_ORGANIZATION ( #52, #84, #253 ) ;
#199 = DIRECTION ( 'NONE',  ( 1.000000000000000000, 0.0000000000000000000, -3.469446951953614189E-15 ) ) ;
#200 = COORDINATED_UNIVERSAL_TIME_OFFSET ( 1, 0, .AHEAD. ) ;
#201 = DIRECTION ( 'NONE',  ( 3.491481338843133355E-15, -0.0000000000000000000, 1.000000000000000000 ) ) ;
#202 = ORIENTED_EDGE ( 'NONE', *, *, #174, .F. ) ;
#203 = CLOSED_SHELL ( 'NONE', ( #79, #57, #206, #163 ) ) ;
#204 = CC_DESIGN_DATE_AND_TIME_ASSIGNMENT ( #117, #195, ( #30 ) ) ;
#205 = ORIENTED_EDGE ( 'NONE', *, *, #141, .F. ) ;
#206 = ADVANCED_FACE ( 'NONE', ( #86, #107 ), #261, .T. ) ;
#207 = AXIS2_PLACEMENT_3D ( 'NONE', #157, #224, #119 ) ;
#208 = CC_DESIGN_SECURITY_CLASSIFICATION ( #30, ( #59 ) ) ;
#209 = UNCERTAINTY_MEASURE_WITH_UNIT (LENGTH_MEASURE( 1.000000000000000082E-05 ), #212, 'distance_accuracy_value', 'NONE');
#210 = DIRECTION ( 'NONE',  ( 3.491481338843133355E-15, -0.0000000000000000000, 1.000000000000000000 ) ) ;
#211 = ORGANIZATION ( 'UNSPECIFIED', 'UNSPECIFIED', '' ) ;
#212 =( LENGTH_UNIT ( ) NAMED_UNIT ( * ) SI_UNIT ( .MILLI., .METRE. ) );
#213 = APPLICATION_CONTEXT ( 'configuration controlled 3d designs of mechanical parts and assemblies' ) ;
#214 = EDGE_CURVE ( 'NONE', #64, #64, #192, .T. ) ;
#215 = PERSON_AND_ORGANIZATION_ROLE ( 'design_supplier' ) ;
#216 = CALENDAR_DATE ( 2021, 18, 11 ) ;
#217 = ORIENTED_EDGE ( 'NONE', *, *, #141, .T. ) ;
#218 = ADVANCED_BREP_SHAPE_REPRESENTATION ( '339058', ( #77, #164, #161 ), #20 ) ;
#219 = SHAPE_DEFINITION_REPRESENTATION ( #37, #218 ) ;
#220 = PERSON_AND_ORGANIZATION_ROLE ( 'design_owner' ) ;
#221 = PLANE ( 'NONE',  #46 ) ;
#222 = AXIS2_PLACEMENT_3D ( 'NONE', #240, #160, #179 ) ;
#223 = PERSON_AND_ORGANIZATION_ROLE ( 'creator' ) ;
#224 = DIRECTION ( 'NONE',  ( -3.491481338843133355E-15, 1.224646799147353207E-16, -1.000000000000000000 ) ) ;
#225 = CARTESIAN_POINT ( 'NONE',  ( 0.0000000000000000000, 0.0000000000000000000, 0.0000000000000000000 ) ) ;
#226 = DIRECTION ( 'NONE',  ( 1.000000000000000000, 0.0000000000000000000, -3.491481338843133355E-15 ) ) ;
#227 = AXIS2_PLACEMENT_3D ( 'NONE', #54, #201, #99 ) ;
#228 = AXIS2_PLACEMENT_3D ( 'NONE', #146, #188, #60 ) ;
#229 = ORIENTED_EDGE ( 'NONE', *, *, #174, .T. ) ;
#230 = DIRECTION ( 'NONE',  ( 3.491481338843133355E-15, -0.0000000000000000000, 1.000000000000000000 ) ) ;
#231 = EDGE_CURVE ( 'NONE', #127, #127, #148, .T. ) ;
#232 = CARTESIAN_POINT ( 'NONE',  ( 1.291848095371959215E-13, 0.0000000000000000000, 37.00000000000000000 ) ) ;
#233 = VERTEX_POINT ( 'NONE', #247 ) ;
#234 = APPLICATION_PROTOCOL_DEFINITION ( 'international standard', 'config_control_design', 1994, #73 ) ;
#235 = DIRECTION ( 'NONE',  ( 0.0000000000000000000, 0.0000000000000000000, 1.000000000000000000 ) ) ;
#236 = ORIENTED_EDGE ( 'NONE', *, *, #214, .T. ) ;
#237 = DIRECTION ( 'NONE',  ( 0.0000000000000000000, 1.000000000000000000, 0.0000000000000000000 ) ) ;
#238 = APPROVAL_STATUS ( 'not_yet_approved' ) ;
#239 = APPROVAL_PERSON_ORGANIZATION ( #137, #105, #33 ) ;
#240 = CARTESIAN_POINT ( 'NONE',  ( 2.856031735173682958E-13, -1.001761081702534806E-14, 81.79999999999999716 ) ) ;
#241 = DIRECTION ( 'NONE',  ( -4.275831445896958607E-31, -1.000000000000000000, -1.224646799147353207E-16 ) ) ;
#242 = EDGE_LOOP ( 'NONE', ( #69 ) ) ;
#243 = AXIS2_PLACEMENT_3D ( 'NONE', #80, #10, #199 ) ;
#244 = CC_DESIGN_PERSON_AND_ORGANIZATION_ASSIGNMENT ( #194, #95, ( #30 ) ) ;
#245 = DIRECTION ( 'NONE',  ( -3.491481338843133355E-15, 1.224646799147353207E-16, -1.000000000000000000 ) ) ;
#246 = ADVANCED_FACE ( 'NONE', ( #150, #166 ), #2, .T. ) ;
#247 = CARTESIAN_POINT ( 'NONE',  ( 9.077851480992146724E-14, 5.999999999999996447, 26.00000000000000000 ) ) ;
#248 = EDGE_LOOP ( 'NONE', ( #217 ) ) ;
#249 = PERSON_AND_ORGANIZATION ( #41, #211 ) ;
#250 = CARTESIAN_POINT ( 'NONE',  ( 0.0000000000000000000, 0.0000000000000000000, 0.0000000000000000000 ) ) ;
#251 = CIRCLE ( 'NONE', #181, 5.500000000000000000 ) ;
#252 = COORDINATED_UNIVERSAL_TIME_OFFSET ( 1, 0, .AHEAD. ) ;
#253 = APPROVAL_ROLE ( '' ) ;
#254 = CARTESIAN_POINT ( 'NONE',  ( 9.077851480992146724E-14, -3.184081677783118191E-15, 26.00000000000000000 ) ) ;
#255 = CYLINDRICAL_SURFACE ( 'NONE', #14, 6.000000000000000000 ) ;
#256 = PLANE ( 'NONE',  #82 ) ;
#257 = EDGE_CURVE ( 'NONE', #129, #129, #251, .T. ) ;
#258 = LOCAL_TIME ( 11, 46, 15.00000000000000000, #200 ) ;
#259 = EDGE_LOOP ( 'NONE', ( #66 ) ) ;
#260 = AXIS2_PLACEMENT_3D ( 'NONE', #61, #39, #65 ) ;
#261 = TOROIDAL_SURFACE ( 'NONE', #260, 3.000000000000000000, 3.000000000000000000 ) ;
#262 = DIRECTION ( 'NONE',  ( 0.0000000000000000000, 1.000000000000000000, 0.0000000000000000000 ) ) ;
#263 = VERTEX_POINT ( 'NONE', #191 ) ;
ENDSEC;
END-ISO-10303-21;
