ISO-10303-21;
HEADER;
FILE_DESCRIPTION (( 'STEP AP203' ),
    '1' );
FILE_NAME ('339057.step',
    '2021-11-18T10:46:14',
    ( '' ),
    ( '' ),
    'SwSTEP 2.0',
    'SolidWorks 2019',
    '' );
FILE_SCHEMA (( 'CONFIG_CONTROL_DESIGN' ));
ENDSEC;

DATA;
#1 = CARTESIAN_POINT ( 'NONE',  ( 2.856031735173682958E-13, 5.999999999999991118, 81.79999999999999716 ) ) ;
#2 = LOCAL_TIME ( 11, 46, 14.00000000000000000, #103 ) ;
#3 = FACE_OUTER_BOUND ( 'NONE', #229, .T. ) ;
#4 = CARTESIAN_POINT ( 'NONE',  ( -1.282749433769087757E-30, 0.0000000000000000000, -3.673940397442059868E-16 ) ) ;
#5 = DATE_AND_TIME ( #175, #2 ) ;
#6 = ORIENTED_EDGE ( 'NONE', *, *, #222, .T. ) ;
#7 = VERTEX_POINT ( 'NONE', #29 ) ;
#8 = DIRECTION ( 'NONE',  ( 0.0000000000000000000, 1.000000000000000000, 0.0000000000000000000 ) ) ;
#9 = ADVANCED_FACE ( 'NONE', ( #48 ), #45, .F. ) ;
#10 = CARTESIAN_POINT ( 'NONE',  ( 9.077851480992146724E-14, 0.0000000000000000000, 26.00000000000000000 ) ) ;
#11 = EDGE_LOOP ( 'NONE', ( #143 ) ) ;
#12 = ORIENTED_EDGE ( 'NONE', *, *, #214, .F. ) ;
#13 = LOCAL_TIME ( 11, 46, 14.00000000000000000, #132 ) ;
#14 = EDGE_LOOP ( 'NONE', ( #12 ) ) ;
#15 = AXIS2_PLACEMENT_3D ( 'NONE', #52, #17, #97 ) ;
#16 = ADVANCED_FACE ( 'NONE', ( #87, #160 ), #129, .T. ) ;
#17 = DIRECTION ( 'NONE',  ( -3.491481338843133355E-15, 1.224646799147353207E-16, -1.000000000000000000 ) ) ;
#18 = APPLICATION_CONTEXT ( 'configuration controlled 3d designs of mechanical parts and assemblies' ) ;
#19 = PERSON_AND_ORGANIZATION ( #168, #110 ) ;
#20 = PLANE ( 'NONE',  #148 ) ;
#21 = APPROVAL_STATUS ( 'not_yet_approved' ) ;
#22 = DIRECTION ( 'NONE',  ( 1.000000000000000000, 0.0000000000000000000, -3.784851220313033947E-15 ) ) ;
#23 = DIRECTION ( 'NONE',  ( 4.275831445896958607E-31, 1.000000000000000000, 1.224646799147353207E-16 ) ) ;
#24 = PERSON_AND_ORGANIZATION_ROLE ( 'classification_officer' ) ;
#25 = LOCAL_TIME ( 11, 46, 14.00000000000000000, #98 ) ;
#26 = DIRECTION ( 'NONE',  ( 3.491481338843133355E-15, -0.0000000000000000000, 1.000000000000000000 ) ) ;
#27 = DIRECTION ( 'NONE',  ( -3.491481338843133355E-15, 1.224646799147353207E-16, -1.000000000000000000 ) ) ;
#28 = DIRECTION ( 'NONE',  ( -3.491481338843133355E-15, 0.0000000000000000000, -1.000000000000000000 ) ) ;
#29 = CARTESIAN_POINT ( 'NONE',  ( 5.500000000000128786, 0.0000000000000000000, 36.99999999999997868 ) ) ;
#30 = AXIS2_PLACEMENT_3D ( 'NONE', #245, #28, #31 ) ;
#31 = DIRECTION ( 'NONE',  ( -1.000000000000000000, 0.0000000000000000000, 3.491481338843133355E-15 ) ) ;
#32 = EDGE_LOOP ( 'NONE', ( #238 ) ) ;
#33 = EDGE_LOOP ( 'NONE', ( #134 ) ) ;
#34 = ADVANCED_FACE ( 'NONE', ( #184, #243 ), #206, .T. ) ;
#35 = ADVANCED_FACE ( 'NONE', ( #203 ), #250, .T. ) ;
#36 = CC_DESIGN_APPROVAL ( #150, ( #232 ) ) ;
#37 = DIRECTION ( 'NONE',  ( -3.491481338843133355E-15, 1.224646799147353207E-16, -1.000000000000000000 ) ) ;
#38 = DIRECTION ( 'NONE',  ( 3.491481338843133355E-15, -0.0000000000000000000, 1.000000000000000000 ) ) ;
#39 = FACE_OUTER_BOUND ( 'NONE', #109, .T. ) ;
#40 = DATE_TIME_ROLE ( 'creation_date' ) ;
#41 = EDGE_LOOP ( 'NONE', ( #51 ) ) ;
#42 = CARTESIAN_POINT ( 'NONE',  ( 9.077851480992146724E-14, 5.999999999999996447, 26.00000000000000000 ) ) ;
#43 = FACE_OUTER_BOUND ( 'NONE', #141, .T. ) ;
#44 = CARTESIAN_POINT ( 'NONE',  ( 2.856031735173682958E-13, -1.001761081702534806E-14, 81.79999999999999716 ) ) ;
#45 = PLANE ( 'NONE',  #253 ) ;
#46 = CLOSED_SHELL ( 'NONE', ( #34, #35, #82, #257 ) ) ;
#47 =( GEOMETRIC_REPRESENTATION_CONTEXT ( 3 ) GLOBAL_UNCERTAINTY_ASSIGNED_CONTEXT ( ( #199 ) ) GLOBAL_UNIT_ASSIGNED_CONTEXT ( ( #94, #212, #75 ) ) REPRESENTATION_CONTEXT ( 'NONE', 'WORKASPACE' ) );
#48 = FACE_OUTER_BOUND ( 'NONE', #77, .T. ) ;
#49 = APPROVAL_DATE_TIME ( #227, #254 ) ;
#50 = CIRCLE ( 'NONE', #194, 5.500000000000000000 ) ;
#51 = ORIENTED_EDGE ( 'NONE', *, *, #196, .F. ) ;
#52 = CARTESIAN_POINT ( 'NONE',  ( 9.077851480992146724E-14, -3.184081677783118191E-15, 26.00000000000000000 ) ) ;
#53 = APPLICATION_PROTOCOL_DEFINITION ( 'international standard', 'config_control_design', 1994, #113 ) ;
#54 = CALENDAR_DATE ( 2021, 18, 11 ) ;
#55 = CONICAL_SURFACE ( 'NONE', #58, 6.000000000000001776, 0.7853981633974511656 ) ;
#56 = ORIENTED_EDGE ( 'NONE', *, *, #260, .T. ) ;
#57 = EDGE_LOOP ( 'NONE', ( #6 ) ) ;
#58 = AXIS2_PLACEMENT_3D ( 'NONE', #44, #85, #158 ) ;
#59 = CYLINDRICAL_SURFACE ( 'NONE', #116, 6.000000000000000888 ) ;
#60 = CARTESIAN_POINT ( 'NONE',  ( 5.500000000000090594, 0.0000000000000000000, 25.99999999999997868 ) ) ;
#61 = VERTEX_POINT ( 'NONE', #139 ) ;
#62 = DATE_AND_TIME ( #100, #189 ) ;
#63 = AXIS2_PLACEMENT_3D ( 'NONE', #104, #156, #8 ) ;
#64 = DIRECTION ( 'NONE',  ( 3.491481338843133355E-15, -0.0000000000000000000, 1.000000000000000000 ) ) ;
#65 = COORDINATED_UNIVERSAL_TIME_OFFSET ( 1, 0, .AHEAD. ) ;
#66 = CARTESIAN_POINT ( 'NONE',  ( 9.077851480992146724E-14, 4.499279347985567350E-32, 26.00000000000000000 ) ) ;
#67 = FACE_OUTER_BOUND ( 'NONE', #33, .T. ) ;
#68 = VERTEX_POINT ( 'NONE', #42 ) ;
#69 = CC_DESIGN_PERSON_AND_ORGANIZATION_ASSIGNMENT ( #140, #122, ( #232 ) ) ;
#70 = CARTESIAN_POINT ( 'NONE',  ( 9.077851480992146724E-14, 4.499279347985567350E-32, 26.00000000000000000 ) ) ;
#71 = DIRECTION ( 'NONE',  ( 3.491481338843133355E-15, -0.0000000000000000000, 1.000000000000000000 ) ) ;
#72 = CC_DESIGN_APPROVAL ( #136, ( #165 ) ) ;
#73 = APPLICATION_PROTOCOL_DEFINITION ( 'international standard', 'config_control_design', 1994, #18 ) ;
#74 = ORIENTED_EDGE ( 'NONE', *, *, #108, .T. ) ;
#75 =( NAMED_UNIT ( * ) SI_UNIT ( $, .STERADIAN. ) SOLID_ANGLE_UNIT ( ) );
#76 = COORDINATED_UNIVERSAL_TIME_OFFSET ( 1, 0, .AHEAD. ) ;
#77 = EDGE_LOOP ( 'NONE', ( #167 ) ) ;
#78 = AXIS2_PLACEMENT_3D ( 'NONE', #240, #37, #261 ) ;
#79 = FACE_OUTER_BOUND ( 'NONE', #166, .T. ) ;
#80 = CARTESIAN_POINT ( 'NONE',  ( 2.897929511239800306E-13, 4.799999999999991829, 82.99999999999998579 ) ) ;
#81 = CC_DESIGN_APPROVAL ( #254, ( #207 ) ) ;
#82 = ADVANCED_FACE ( 'NONE', ( #43, #208 ), #262, .T. ) ;
#83 = DIRECTION ( 'NONE',  ( 4.275831445896959482E-31, 1.000000000000000000, 1.224646799147353207E-16 ) ) ;
#84 = FACE_OUTER_BOUND ( 'NONE', #251, .T. ) ;
#85 = DIRECTION ( 'NONE',  ( -3.491481338843133355E-15, 1.224646799147353207E-16, -1.000000000000000000 ) ) ;
#86 = PERSON_AND_ORGANIZATION ( #168, #110 ) ;
#87 = FACE_OUTER_BOUND ( 'NONE', #256, .T. ) ;
#88 = DIRECTION ( 'NONE',  ( 4.275831445896959482E-31, 1.000000000000000000, 1.224646799147353207E-16 ) ) ;
#89 = APPROVAL_ROLE ( '' ) ;
#90 = AXIS2_PLACEMENT_3D ( 'NONE', #142, #38, #138 ) ;
#91 = CARTESIAN_POINT ( 'NONE',  ( 0.0000000000000000000, 0.0000000000000000000, 0.0000000000000000000 ) ) ;
#92 = CC_DESIGN_PERSON_AND_ORGANIZATION_ASSIGNMENT ( #124, #24, ( #165 ) ) ;
#93 = ORIENTED_EDGE ( 'NONE', *, *, #222, .F. ) ;
#94 =( LENGTH_UNIT ( ) NAMED_UNIT ( * ) SI_UNIT ( .MILLI., .METRE. ) );
#95 = AXIS2_PLACEMENT_3D ( 'NONE', #230, #71, #224 ) ;
#96 = EDGE_CURVE ( 'NONE', #7, #7, #50, .T. ) ;
#97 = DIRECTION ( 'NONE',  ( 0.0000000000000000000, 1.000000000000000000, 0.0000000000000000000 ) ) ;
#98 = COORDINATED_UNIVERSAL_TIME_OFFSET ( 1, 0, .AHEAD. ) ;
#99 = EDGE_CURVE ( 'NONE', #105, #105, #248, .T. ) ;
#100 = CALENDAR_DATE ( 2021, 18, 11 ) ;
#101 = CLOSED_SHELL ( 'NONE', ( #249, #210, #145, #258, #16, #9 ) ) ;
#102 = DIRECTION ( 'NONE',  ( 1.000000000000000000, 0.0000000000000000000, -3.784851220313033947E-15 ) ) ;
#103 = COORDINATED_UNIVERSAL_TIME_OFFSET ( 1, 0, .AHEAD. ) ;
#104 = CARTESIAN_POINT ( 'NONE',  ( 2.856031735173682958E-13, -1.001761081702534806E-14, 81.79999999999999716 ) ) ;
#105 = VERTEX_POINT ( 'NONE', #60 ) ;
#106 = DIRECTION ( 'NONE',  ( 1.000000000000000000, 0.0000000000000000000, -3.491481338843133355E-15 ) ) ;
#107 = CARTESIAN_POINT ( 'NONE',  ( 0.0000000000000000000, 0.0000000000000000000, 0.0000000000000000000 ) ) ;
#108 = EDGE_CURVE ( 'NONE', #159, #159, #147, .T. ) ;
#109 = EDGE_LOOP ( 'NONE', ( #74 ) ) ;
#110 = ORGANIZATION ( 'UNSPECIFIED', 'UNSPECIFIED', '' ) ;
#111 = AXIS2_PLACEMENT_3D ( 'NONE', #107, #201, #83 ) ;
#112 = PRODUCT_RELATED_PRODUCT_CATEGORY ( 'detail', '', ( #221 ) ) ;
#113 = APPLICATION_CONTEXT ( 'configuration controlled 3d designs of mechanical parts and assemblies' ) ;
#114 = MANIFOLD_SOLID_BREP ( 'Corps-Déplacer/Copier1[1]', #101 ) ;
#115 = CC_DESIGN_DATE_AND_TIME_ASSIGNMENT ( #62, #40, ( #207 ) ) ;
#116 = AXIS2_PLACEMENT_3D ( 'NONE', #153, #27, #88 ) ;
#117 = APPROVAL_PERSON_ORGANIZATION ( #19, #150, #126 ) ;
#118 = APPROVAL_DATE_TIME ( #133, #136 ) ;
#119 = CARTESIAN_POINT ( 'NONE',  ( -5.999999999999872102, -4.531193156845206004E-15, 37.00000000000001421 ) ) ;
#120 = PERSON_AND_ORGANIZATION_ROLE ( 'creator' ) ;
#121 = DIRECTION ( 'NONE',  ( -3.491481338843133355E-15, 1.224646799147353207E-16, -1.000000000000000000 ) ) ;
#122 = PERSON_AND_ORGANIZATION_ROLE ( 'design_supplier' ) ;
#123 = ORIENTED_EDGE ( 'NONE', *, *, #96, .F. ) ;
#124 = PERSON_AND_ORGANIZATION ( #168, #110 ) ;
#125 = DIRECTION ( 'NONE',  ( 3.491481338843133355E-15, -1.224646799147353207E-16, 1.000000000000000000 ) ) ;
#126 = APPROVAL_ROLE ( '' ) ;
#127 = DIRECTION ( 'NONE',  ( 3.491481338843133355E-15, -1.224646799147353207E-16, 1.000000000000000000 ) ) ;
#128 = CARTESIAN_POINT ( 'NONE',  ( -1.282749433769087757E-30, 4.499279347985572824E-32, -3.673940397442059868E-16 ) ) ;
#129 = PLANE ( 'NONE',  #30 ) ;
#130 = AXIS2_PLACEMENT_3D ( 'NONE', #91, #237, #190 ) ;
#131 = EDGE_LOOP ( 'NONE', ( #187 ) ) ;
#132 = COORDINATED_UNIVERSAL_TIME_OFFSET ( 1, 0, .AHEAD. ) ;
#133 = DATE_AND_TIME ( #54, #174 ) ;
#134 = ORIENTED_EDGE ( 'NONE', *, *, #241, .F. ) ;
#135 = APPROVAL_PERSON_ORGANIZATION ( #236, #254, #89 ) ;
#136 = APPROVAL ( #183, 'UNSPECIFIED' ) ;
#137 = CARTESIAN_POINT ( 'NONE',  ( 1.291848095371958963E-13, -4.531193156845206004E-15, 36.99999999999999289 ) ) ;
#138 = DIRECTION ( 'NONE',  ( 1.000000000000000000, 0.0000000000000000000, -3.491481338843133355E-15 ) ) ;
#139 = CARTESIAN_POINT ( 'NONE',  ( 4.000000000000000000, 0.0000000000000000000, -1.483328709336093697E-14 ) ) ;
#140 = PERSON_AND_ORGANIZATION ( #168, #110 ) ;
#141 = EDGE_LOOP ( 'NONE', ( #56 ) ) ;
#142 = CARTESIAN_POINT ( 'NONE',  ( -3.028377322213058170E-30, 0.0000000000000000000, -8.673617379884035472E-16 ) ) ;
#143 = ORIENTED_EDGE ( 'NONE', *, *, #241, .T. ) ;
#144 = VERTEX_POINT ( 'NONE', #180 ) ;
#145 = ADVANCED_FACE ( 'NONE', ( #67 ), #173, .F. ) ;
#146 = DIRECTION ( 'NONE',  ( 4.275831445896958607E-31, 1.000000000000000000, 1.224646799147353207E-16 ) ) ;
#147 = CIRCLE ( 'NONE', #63, 6.000000000000001776 ) ;
#148 = AXIS2_PLACEMENT_3D ( 'NONE', #128, #121, #23 ) ;
#149 = ORIENTED_EDGE ( 'NONE', *, *, #196, .T. ) ;
#150 = APPROVAL ( #21, 'UNSPECIFIED' ) ;
#151 = PERSON_AND_ORGANIZATION_ROLE ( 'creator' ) ;
#152 = AXIS2_PLACEMENT_3D ( 'NONE', #4, #64, #161 ) ;
#153 = CARTESIAN_POINT ( 'NONE',  ( 0.0000000000000000000, 0.0000000000000000000, 0.0000000000000000000 ) ) ;
#154 = DESIGN_CONTEXT ( 'detailed design', #18, 'design' ) ;
#155 = PERSON_AND_ORGANIZATION ( #168, #110 ) ;
#156 = DIRECTION ( 'NONE',  ( -3.491481338843133355E-15, 1.224646799147353207E-16, -1.000000000000000000 ) ) ;
#157 = AXIS2_PLACEMENT_3D ( 'NONE', #66, #125, #228 ) ;
#158 = DIRECTION ( 'NONE',  ( 0.0000000000000000000, 1.000000000000000000, 0.0000000000000000000 ) ) ;
#159 = VERTEX_POINT ( 'NONE', #1 ) ;
#160 = FACE_BOUND ( 'NONE', #217, .T. ) ;
#161 = DIRECTION ( 'NONE',  ( 1.000000000000000000, 0.0000000000000000000, -3.491481338843133355E-15 ) ) ;
#162 = DIRECTION ( 'NONE',  ( -4.275831445896958607E-31, -1.000000000000000000, -1.224646799147353207E-16 ) ) ;
#163 = CARTESIAN_POINT ( 'NONE',  ( 2.897929511239800306E-13, 1.735533076592498547E-30, 82.99999999999998579 ) ) ;
#164 = AXIS2_PLACEMENT_3D ( 'NONE', #181, #246, #106 ) ;
#165 = SECURITY_CLASSIFICATION ( '', '', #200 ) ;
#166 = EDGE_LOOP ( 'NONE', ( #123 ) ) ;
#167 = ORIENTED_EDGE ( 'NONE', *, *, #99, .F. ) ;
#168 = PERSON ( 'UNSPECIFIED', 'UNSPECIFIED', 'UNSPECIFIED', ('UNSPECIFIED'), ('UNSPECIFIED'), ('UNSPECIFIED') ) ;
#169 = AXIS2_PLACEMENT_3D ( 'NONE', #10, #26, #22 ) ;
#170 = CALENDAR_DATE ( 2021, 18, 11 ) ;
#171 = CIRCLE ( 'NONE', #15, 6.000000000000000000 ) ;
#172 = CIRCLE ( 'NONE', #78, 4.800000000000002487 ) ;
#173 = PLANE ( 'NONE',  #234 ) ;
#174 = LOCAL_TIME ( 11, 46, 14.00000000000000000, #76 ) ;
#175 = CALENDAR_DATE ( 2021, 18, 11 ) ;
#176 = EDGE_LOOP ( 'NONE', ( #149 ) ) ;
#177 = FACE_BOUND ( 'NONE', #11, .T. ) ;
#178 = APPROVAL_DATE_TIME ( #205, #150 ) ;
#179 = DIRECTION ( 'NONE',  ( 3.491481338843133355E-15, -0.0000000000000000000, 1.000000000000000000 ) ) ;
#180 = CARTESIAN_POINT ( 'NONE',  ( 6.000000000000006217, 0.0000000000000000000, 1.999999999999978462 ) ) ;
#181 = CARTESIAN_POINT ( 'NONE',  ( 6.982962677686263555E-15, 0.0000000000000000000, 1.999999999999999112 ) ) ;
#182 = CC_DESIGN_PERSON_AND_ORGANIZATION_ASSIGNMENT ( #239, #195, ( #221 ) ) ;
#183 = APPROVAL_STATUS ( 'not_yet_approved' ) ;
#184 = FACE_OUTER_BOUND ( 'NONE', #176, .T. ) ;
#185 = CALENDAR_DATE ( 2021, 18, 11 ) ;
#186 = CC_DESIGN_PERSON_AND_ORGANIZATION_ASSIGNMENT ( #223, #151, ( #232 ) ) ;
#187 = ORIENTED_EDGE ( 'NONE', *, *, #214, .T. ) ;
#188 = CIRCLE ( 'NONE', #231, 6.000000000000000888 ) ;
#189 = LOCAL_TIME ( 11, 46, 14.00000000000000000, #65 ) ;
#190 = DIRECTION ( 'NONE',  ( 1.000000000000000000, 0.0000000000000000000, 0.0000000000000000000 ) ) ;
#191 = SHAPE_DEFINITION_REPRESENTATION ( #235, #255 ) ;
#192 = ORIENTED_EDGE ( 'NONE', *, *, #96, .T. ) ;
#193 = MANIFOLD_SOLID_BREP ( 'Corps-Déplacer/Copier1[2]', #46 ) ;
#194 = AXIS2_PLACEMENT_3D ( 'NONE', #225, #179, #102 ) ;
#195 = PERSON_AND_ORGANIZATION_ROLE ( 'design_owner' ) ;
#196 = EDGE_CURVE ( 'NONE', #144, #144, #211, .T. ) ;
#197 = VERTEX_POINT ( 'NONE', #80 ) ;
#198 = FACE_OUTER_BOUND ( 'NONE', #57, .T. ) ;
#199 = UNCERTAINTY_MEASURE_WITH_UNIT (LENGTH_MEASURE( 1.000000000000000082E-05 ), #94, 'distance_accuracy_value', 'NONE');
#200 = SECURITY_CLASSIFICATION_LEVEL ( 'unclassified' ) ;
#201 = DIRECTION ( 'NONE',  ( -3.491481338843133355E-15, 1.224646799147353207E-16, -1.000000000000000000 ) ) ;
#202 = CC_DESIGN_PERSON_AND_ORGANIZATION_ASSIGNMENT ( #155, #120, ( #207 ) ) ;
#203 = FACE_OUTER_BOUND ( 'NONE', #14, .T. ) ;
#204 = APPROVAL_PERSON_ORGANIZATION ( #86, #136, #213 ) ;
#205 = DATE_AND_TIME ( #170, #25 ) ;
#206 = CYLINDRICAL_SURFACE ( 'NONE', #111, 6.000000000000000000 ) ;
#207 = PRODUCT_DEFINITION ( 'UNKNOWN', '', #232, #154 ) ;
#208 = FACE_OUTER_BOUND ( 'NONE', #41, .T. ) ;
#209 = ORIENTED_EDGE ( 'NONE', *, *, #99, .T. ) ;
#210 = ADVANCED_FACE ( 'NONE', ( #177, #3 ), #55, .T. ) ;
#211 = CIRCLE ( 'NONE', #95, 5.999999999999999112 ) ;
#212 =( NAMED_UNIT ( * ) PLANE_ANGLE_UNIT ( ) SI_UNIT ( $, .RADIAN. ) );
#213 = APPROVAL_ROLE ( '' ) ;
#214 = EDGE_CURVE ( 'NONE', #68, #68, #171, .T. ) ;
#215 = MECHANICAL_CONTEXT ( 'NONE', #113, 'mechanical' ) ;
#216 = CIRCLE ( 'NONE', #90, 4.000000000000000000 ) ;
#217 = EDGE_LOOP ( 'NONE', ( #192 ) ) ;
#218 = CC_DESIGN_SECURITY_CLASSIFICATION ( #165, ( #232 ) ) ;
#219 = DIRECTION ( 'NONE',  ( 3.491481338843133355E-15, -0.0000000000000000000, 1.000000000000000000 ) ) ;
#220 = VERTEX_POINT ( 'NONE', #119 ) ;
#221 = PRODUCT ( '339057', '339057', '', ( #215 ) ) ;
#222 = EDGE_CURVE ( 'NONE', #220, #220, #188, .T. ) ;
#223 = PERSON_AND_ORGANIZATION ( #168, #110 ) ;
#224 = DIRECTION ( 'NONE',  ( 1.000000000000000000, 0.0000000000000000000, -3.469446951953614583E-15 ) ) ;
#225 = CARTESIAN_POINT ( 'NONE',  ( 1.291848095371959215E-13, 0.0000000000000000000, 37.00000000000000000 ) ) ;
#226 = CYLINDRICAL_SURFACE ( 'NONE', #152, 5.500000000000000000 ) ;
#227 = DATE_AND_TIME ( #185, #13 ) ;
#228 = DIRECTION ( 'NONE',  ( -4.275831445896958607E-31, -1.000000000000000000, -1.224646799147353207E-16 ) ) ;
#229 = EDGE_LOOP ( 'NONE', ( #233 ) ) ;
#230 = CARTESIAN_POINT ( 'NONE',  ( 6.982962677686263555E-15, 0.0000000000000000000, 1.999999999999999112 ) ) ;
#231 = AXIS2_PLACEMENT_3D ( 'NONE', #137, #219, #259 ) ;
#232 = PRODUCT_DEFINITION_FORMATION_WITH_SPECIFIED_SOURCE ( 'ANY', '', #221, .NOT_KNOWN. ) ;
#233 = ORIENTED_EDGE ( 'NONE', *, *, #108, .F. ) ;
#234 = AXIS2_PLACEMENT_3D ( 'NONE', #163, #247, #146 ) ;
#235 = PRODUCT_DEFINITION_SHAPE ( 'NONE', 'NONE',  #207 ) ;
#236 = PERSON_AND_ORGANIZATION ( #168, #110 ) ;
#237 = DIRECTION ( 'NONE',  ( 0.0000000000000000000, 0.0000000000000000000, 1.000000000000000000 ) ) ;
#238 = ORIENTED_EDGE ( 'NONE', *, *, #260, .F. ) ;
#239 = PERSON_AND_ORGANIZATION ( #168, #110 ) ;
#240 = CARTESIAN_POINT ( 'NONE',  ( 2.897929511239800306E-13, -1.016456843292302992E-14, 82.99999999999998579 ) ) ;
#241 = EDGE_CURVE ( 'NONE', #197, #197, #172, .T. ) ;
#242 = FACE_OUTER_BOUND ( 'NONE', #32, .T. ) ;
#243 = FACE_OUTER_BOUND ( 'NONE', #131, .T. ) ;
#244 = DATE_TIME_ROLE ( 'classification_date' ) ;
#245 = CARTESIAN_POINT ( 'NONE',  ( 1.291848095371958963E-13, 6.999999999999997335, 36.99999999999999289 ) ) ;
#246 = DIRECTION ( 'NONE',  ( 3.491481338843133355E-15, -0.0000000000000000000, 1.000000000000000000 ) ) ;
#247 = DIRECTION ( 'NONE',  ( -3.491481338843133355E-15, 1.224646799147353207E-16, -1.000000000000000000 ) ) ;
#248 = CIRCLE ( 'NONE', #169, 5.500000000000000000 ) ;
#249 = ADVANCED_FACE ( 'NONE', ( #39, #198 ), #59, .T. ) ;
#250 = PLANE ( 'NONE',  #157 ) ;
#251 = EDGE_LOOP ( 'NONE', ( #209 ) ) ;
#252 = APPROVAL_STATUS ( 'not_yet_approved' ) ;
#253 = AXIS2_PLACEMENT_3D ( 'NONE', #70, #127, #162 ) ;
#254 = APPROVAL ( #252, 'UNSPECIFIED' ) ;
#255 = ADVANCED_BREP_SHAPE_REPRESENTATION ( '339057', ( #114, #193, #130 ), #47 ) ;
#256 = EDGE_LOOP ( 'NONE', ( #93 ) ) ;
#257 = ADVANCED_FACE ( 'NONE', ( #242 ), #20, .T. ) ;
#258 = ADVANCED_FACE ( 'NONE', ( #84, #79 ), #226, .T. ) ;
#259 = DIRECTION ( 'NONE',  ( -1.000000000000000000, 0.0000000000000000000, 3.469446951953613794E-15 ) ) ;
#260 = EDGE_CURVE ( 'NONE', #61, #61, #216, .T. ) ;
#261 = DIRECTION ( 'NONE',  ( 0.0000000000000000000, 1.000000000000000000, 0.0000000000000000000 ) ) ;
#262 = TOROIDAL_SURFACE ( 'NONE', #164, 4.000000000000000000, 2.000000000000000000 ) ;
#263 = CC_DESIGN_DATE_AND_TIME_ASSIGNMENT ( #5, #244, ( #165 ) ) ;
ENDSEC;
END-ISO-10303-21;
