ISO-10303-21;
HEADER;
FILE_DESCRIPTION (( 'STEP AP203' ),
    '1' );
FILE_NAME ('339056.step',
    '2021-11-18T10:46:14',
    ( '' ),
    ( '' ),
    'SwSTEP 2.0',
    'SolidWorks 2019',
    '' );
FILE_SCHEMA (( 'CONFIG_CONTROL_DESIGN' ));
ENDSEC;

DATA;
#1 = CARTESIAN_POINT ( 'NONE',  ( 3.491481338843129805E-15, 0.0000000000000000000, 0.9999999999999988898 ) ) ;
#2 = FACE_BOUND ( 'NONE', #245, .T. ) ;
#3 = ORIENTED_EDGE ( 'NONE', *, *, #213, .F. ) ;
#4 = APPROVAL_ROLE ( '' ) ;
#5 = LOCAL_TIME ( 11, 46, 14.00000000000000000, #185 ) ;
#6 = PLANE ( 'NONE',  #90 ) ;
#7 = APPROVAL ( #114, 'UNSPECIFIED' ) ;
#8 = FACE_OUTER_BOUND ( 'NONE', #172, .T. ) ;
#9 = FACE_OUTER_BOUND ( 'NONE', #111, .T. ) ;
#10 = CARTESIAN_POINT ( 'NONE',  ( 9.077851480992146724E-14, 5.999999999999996447, 26.00000000000000000 ) ) ;
#11 = AXIS2_PLACEMENT_3D ( 'NONE', #1, #187, #51 ) ;
#12 = ORIENTED_EDGE ( 'NONE', *, *, #262, .F. ) ;
#13 = SECURITY_CLASSIFICATION_LEVEL ( 'unclassified' ) ;
#14 = FACE_OUTER_BOUND ( 'NONE', #35, .T. ) ;
#15 = ORIENTED_EDGE ( 'NONE', *, *, #197, .T. ) ;
#16 = CARTESIAN_POINT ( 'NONE',  ( -1.282749433769087757E-30, 0.0000000000000000000, -3.673940397442059868E-16 ) ) ;
#17 = APPROVAL_ROLE ( '' ) ;
#18 = LOCAL_TIME ( 11, 46, 14.00000000000000000, #151 ) ;
#19 = EDGE_LOOP ( 'NONE', ( #208 ) ) ;
#20 = CALENDAR_DATE ( 2021, 18, 11 ) ;
#21 = CC_DESIGN_PERSON_AND_ORGANIZATION_ASSIGNMENT ( #58, #257, ( #40 ) ) ;
#22 = APPROVAL_PERSON_ORGANIZATION ( #221, #7, #169 ) ;
#23 = FACE_OUTER_BOUND ( 'NONE', #214, .T. ) ;
#24 = CIRCLE ( 'NONE', #95, 4.800000000000002487 ) ;
#25 = ORIENTED_EDGE ( 'NONE', *, *, #258, .T. ) ;
#26 = CARTESIAN_POINT ( 'NONE',  ( -5.999999999999872102, -4.531193156845206004E-15, 37.00000000000001421 ) ) ;
#27 = CARTESIAN_POINT ( 'NONE',  ( 5.500000000000128786, 0.0000000000000000000, 36.99999999999997868 ) ) ;
#28 = EDGE_LOOP ( 'NONE', ( #263 ) ) ;
#29 = VERTEX_POINT ( 'NONE', #206 ) ;
#30 = AXIS2_PLACEMENT_3D ( 'NONE', #71, #241, #182 ) ;
#31 = APPROVAL_STATUS ( 'not_yet_approved' ) ;
#32 = CARTESIAN_POINT ( 'NONE',  ( 2.897929511239800306E-13, 4.799999999999991829, 82.99999999999998579 ) ) ;
#33 = CYLINDRICAL_SURFACE ( 'NONE', #209, 6.000000000000000888 ) ;
#34 = DATE_AND_TIME ( #61, #235 ) ;
#35 = EDGE_LOOP ( 'NONE', ( #15 ) ) ;
#36 = AXIS2_PLACEMENT_3D ( 'NONE', #16, #240, #63 ) ;
#37 = COORDINATED_UNIVERSAL_TIME_OFFSET ( 1, 0, .AHEAD. ) ;
#38 = EDGE_LOOP ( 'NONE', ( #49 ) ) ;
#39 = APPLICATION_PROTOCOL_DEFINITION ( 'international standard', 'config_control_design', 1994, #110 ) ;
#40 = PRODUCT_DEFINITION ( 'UNKNOWN', '', #261, #202 ) ;
#41 = ORIENTED_EDGE ( 'NONE', *, *, #96, .T. ) ;
#42 = ADVANCED_FACE ( 'NONE', ( #67 ), #155, .T. ) ;
#43 = DIRECTION ( 'NONE',  ( 3.491481338843133355E-15, -1.224646799147353207E-16, 1.000000000000000000 ) ) ;
#44 = AXIS2_PLACEMENT_3D ( 'NONE', #105, #53, #203 ) ;
#45 = FACE_OUTER_BOUND ( 'NONE', #189, .T. ) ;
#46 = EDGE_LOOP ( 'NONE', ( #106 ) ) ;
#47 = DIRECTION ( 'NONE',  ( 0.0000000000000000000, 1.000000000000000000, 0.0000000000000000000 ) ) ;
#48 = CARTESIAN_POINT ( 'NONE',  ( 5.500000000000090594, 0.0000000000000000000, 25.99999999999997868 ) ) ;
#49 = ORIENTED_EDGE ( 'NONE', *, *, #197, .F. ) ;
#50 = VERTEX_POINT ( 'NONE', #26 ) ;
#51 = DIRECTION ( 'NONE',  ( 1.000000000000000000, 0.0000000000000000000, -3.505587024369797538E-15 ) ) ;
#52 = AXIS2_PLACEMENT_3D ( 'NONE', #154, #232, #127 ) ;
#53 = DIRECTION ( 'NONE',  ( 3.491481338843133355E-15, -0.0000000000000000000, 1.000000000000000000 ) ) ;
#54 = CIRCLE ( 'NONE', #44, 5.000000000000000000 ) ;
#55 = APPROVAL_DATE_TIME ( #57, #247 ) ;
#56 = ORIENTED_EDGE ( 'NONE', *, *, #96, .F. ) ;
#57 = DATE_AND_TIME ( #237, #18 ) ;
#58 = PERSON_AND_ORGANIZATION ( #168, #215 ) ;
#59 = AXIS2_PLACEMENT_3D ( 'NONE', #166, #126, #244 ) ;
#60 = PERSON_AND_ORGANIZATION ( #168, #215 ) ;
#61 = CALENDAR_DATE ( 2021, 18, 11 ) ;
#62 = AXIS2_PLACEMENT_3D ( 'NONE', #124, #159, #188 ) ;
#63 = DIRECTION ( 'NONE',  ( 1.000000000000000000, 0.0000000000000000000, -3.491481338843133355E-15 ) ) ;
#64 = DIRECTION ( 'NONE',  ( 0.0000000000000000000, 1.000000000000000000, 0.0000000000000000000 ) ) ;
#65 = ORIENTED_EDGE ( 'NONE', *, *, #116, .T. ) ;
#66 = DIRECTION ( 'NONE',  ( 4.275831445896958607E-31, 1.000000000000000000, 1.224646799147353207E-16 ) ) ;
#67 = FACE_OUTER_BOUND ( 'NONE', #205, .T. ) ;
#68 = FACE_OUTER_BOUND ( 'NONE', #46, .T. ) ;
#69 = DIRECTION ( 'NONE',  ( -3.491481338843133355E-15, 1.224646799147353207E-16, -1.000000000000000000 ) ) ;
#70 = VERTEX_POINT ( 'NONE', #48 ) ;
#71 = CARTESIAN_POINT ( 'NONE',  ( 9.077851480992146724E-14, 0.0000000000000000000, 26.00000000000000000 ) ) ;
#72 = PERSON_AND_ORGANIZATION_ROLE ( 'classification_officer' ) ;
#73 = DIRECTION ( 'NONE',  ( -1.000000000000000000, 0.0000000000000000000, 3.469446951953613794E-15 ) ) ;
#74 = PERSON_AND_ORGANIZATION_ROLE ( 'design_owner' ) ;
#75 = CARTESIAN_POINT ( 'NONE',  ( 2.897929511239800306E-13, -1.016456843292302992E-14, 82.99999999999998579 ) ) ;
#76 = CYLINDRICAL_SURFACE ( 'NONE', #36, 5.500000000000000000 ) ;
#77 = AXIS2_PLACEMENT_3D ( 'NONE', #128, #194, #250 ) ;
#78 = APPROVAL ( #31, 'UNSPECIFIED' ) ;
#79 = CARTESIAN_POINT ( 'NONE',  ( -1.282749433769087757E-30, 4.499279347985572824E-32, -3.673940397442059868E-16 ) ) ;
#80 = CARTESIAN_POINT ( 'NONE',  ( 5.000000000000000000, 0.0000000000000000000, -1.854160886670117121E-14 ) ) ;
#81 = SECURITY_CLASSIFICATION ( '', '', #13 ) ;
#82 = DIRECTION ( 'NONE',  ( -3.491481338843133355E-15, 1.224646799147353207E-16, -1.000000000000000000 ) ) ;
#83 = FACE_BOUND ( 'NONE', #87, .T. ) ;
#84 = CC_DESIGN_APPROVAL ( #247, ( #40 ) ) ;
#85 = PERSON_AND_ORGANIZATION_ROLE ( 'creator' ) ;
#86 = CARTESIAN_POINT ( 'NONE',  ( 1.291848095371958963E-13, -4.531193156845206004E-15, 36.99999999999999289 ) ) ;
#87 = EDGE_LOOP ( 'NONE', ( #25 ) ) ;
#88 = PERSON_AND_ORGANIZATION ( #168, #215 ) ;
#89 = CALENDAR_DATE ( 2021, 18, 11 ) ;
#90 = AXIS2_PLACEMENT_3D ( 'NONE', #79, #69, #66 ) ;
#91 = CC_DESIGN_DATE_AND_TIME_ASSIGNMENT ( #34, #190, ( #81 ) ) ;
#92 = MECHANICAL_CONTEXT ( 'NONE', #186, 'mechanical' ) ;
#93 = DATE_AND_TIME ( #133, #160 ) ;
#94 = ADVANCED_FACE ( 'NONE', ( #14, #9 ), #108, .T. ) ;
#95 = AXIS2_PLACEMENT_3D ( 'NONE', #75, #222, #64 ) ;
#96 = EDGE_CURVE ( 'NONE', #50, #50, #156, .T. ) ;
#97 = CLOSED_SHELL ( 'NONE', ( #216, #42, #94, #224 ) ) ;
#98 =( GEOMETRIC_REPRESENTATION_CONTEXT ( 3 ) GLOBAL_UNCERTAINTY_ASSIGNED_CONTEXT ( ( #243 ) ) GLOBAL_UNIT_ASSIGNED_CONTEXT ( ( #179, #204, #158 ) ) REPRESENTATION_CONTEXT ( 'NONE', 'WORKASPACE' ) );
#99 = CARTESIAN_POINT ( 'NONE',  ( 2.856031735173682958E-13, -1.001761081702534806E-14, 81.79999999999999716 ) ) ;
#100 = CARTESIAN_POINT ( 'NONE',  ( 0.0000000000000000000, 0.0000000000000000000, 0.0000000000000000000 ) ) ;
#101 = DIRECTION ( 'NONE',  ( -3.491481338843133355E-15, 1.224646799147353207E-16, -1.000000000000000000 ) ) ;
#102 = CARTESIAN_POINT ( 'NONE',  ( 0.0000000000000000000, 0.0000000000000000000, 0.0000000000000000000 ) ) ;
#103 = AXIS2_PLACEMENT_3D ( 'NONE', #170, #253, #236 ) ;
#104 = VERTEX_POINT ( 'NONE', #165 ) ;
#105 = CARTESIAN_POINT ( 'NONE',  ( -3.785471652766322976E-30, 0.0000000000000000000, -1.084202172485504434E-15 ) ) ;
#106 = ORIENTED_EDGE ( 'NONE', *, *, #239, .T. ) ;
#107 = PERSON_AND_ORGANIZATION ( #168, #215 ) ;
#108 = TOROIDAL_SURFACE ( 'NONE', #103, 5.000000000000000000, 1.000000000000000000 ) ;
#109 = PERSON_AND_ORGANIZATION ( #168, #215 ) ;
#110 = APPLICATION_CONTEXT ( 'configuration controlled 3d designs of mechanical parts and assemblies' ) ;
#111 = EDGE_LOOP ( 'NONE', ( #3 ) ) ;
#112 = DIRECTION ( 'NONE',  ( 1.000000000000000000, 0.0000000000000000000, 0.0000000000000000000 ) ) ;
#113 = MANIFOLD_SOLID_BREP ( 'Corps-Déplacer/Copier1[1]', #129 ) ;
#114 = APPROVAL_STATUS ( 'not_yet_approved' ) ;
#115 = MANIFOLD_SOLID_BREP ( 'Corps-Déplacer/Copier1[2]', #97 ) ;
#116 = EDGE_CURVE ( 'NONE', #211, #211, #24, .T. ) ;
#117 = APPROVAL_PERSON_ORGANIZATION ( #107, #78, #4 ) ;
#118 = CARTESIAN_POINT ( 'NONE',  ( 1.291848095371959215E-13, 0.0000000000000000000, 37.00000000000000000 ) ) ;
#119 = CIRCLE ( 'NONE', #174, 6.000000000000001776 ) ;
#120 = ORIENTED_EDGE ( 'NONE', *, *, #239, .F. ) ;
#121 = FACE_OUTER_BOUND ( 'NONE', #136, .T. ) ;
#122 = ORIENTED_EDGE ( 'NONE', *, *, #262, .T. ) ;
#123 = CARTESIAN_POINT ( 'NONE',  ( 9.077851480992146724E-14, -3.184081677783118191E-15, 26.00000000000000000 ) ) ;
#124 = CARTESIAN_POINT ( 'NONE',  ( 1.291848095371958963E-13, 6.999999999999997335, 36.99999999999999289 ) ) ;
#125 = APPROVAL_PERSON_ORGANIZATION ( #153, #247, #17 ) ;
#126 = DIRECTION ( 'NONE',  ( -3.491481338843133355E-15, 1.224646799147353207E-16, -1.000000000000000000 ) ) ;
#127 = DIRECTION ( 'NONE',  ( -4.275831445896958607E-31, -1.000000000000000000, -1.224646799147353207E-16 ) ) ;
#128 = CARTESIAN_POINT ( 'NONE',  ( 2.897929511239800306E-13, 1.735533076592498547E-30, 82.99999999999998579 ) ) ;
#129 = CLOSED_SHELL ( 'NONE', ( #259, #249, #192, #161, #260, #143 ) ) ;
#130 = DATE_AND_TIME ( #89, #5 ) ;
#131 = AXIS2_PLACEMENT_3D ( 'NONE', #86, #199, #73 ) ;
#132 = DATE_TIME_ROLE ( 'creation_date' ) ;
#133 = CALENDAR_DATE ( 2021, 18, 11 ) ;
#134 = CC_DESIGN_DATE_AND_TIME_ASSIGNMENT ( #193, #132, ( #40 ) ) ;
#135 = AXIS2_PLACEMENT_3D ( 'NONE', #175, #43, #150 ) ;
#136 = EDGE_LOOP ( 'NONE', ( #41 ) ) ;
#137 = CARTESIAN_POINT ( 'NONE',  ( 2.856031735173682958E-13, -1.001761081702534806E-14, 81.79999999999999716 ) ) ;
#138 = AXIS2_PLACEMENT_3D ( 'NONE', #99, #226, #47 ) ;
#139 = VERTEX_POINT ( 'NONE', #10 ) ;
#140 = CC_DESIGN_PERSON_AND_ORGANIZATION_ASSIGNMENT ( #88, #74, ( #234 ) ) ;
#141 = FACE_OUTER_BOUND ( 'NONE', #38, .T. ) ;
#142 = ORIENTED_EDGE ( 'NONE', *, *, #218, .T. ) ;
#143 = ADVANCED_FACE ( 'NONE', ( #45 ), #220, .F. ) ;
#144 = VERTEX_POINT ( 'NONE', #27 ) ;
#145 = PRODUCT_DEFINITION_SHAPE ( 'NONE', 'NONE',  #40 ) ;
#146 = CC_DESIGN_APPROVAL ( #78, ( #81 ) ) ;
#147 = PLANE ( 'NONE',  #77 ) ;
#148 = CC_DESIGN_PERSON_AND_ORGANIZATION_ASSIGNMENT ( #109, #191, ( #261 ) ) ;
#149 = COORDINATED_UNIVERSAL_TIME_OFFSET ( 1, 0, .AHEAD. ) ;
#150 = DIRECTION ( 'NONE',  ( -4.275831445896958607E-31, -1.000000000000000000, -1.224646799147353207E-16 ) ) ;
#151 = COORDINATED_UNIVERSAL_TIME_OFFSET ( 1, 0, .AHEAD. ) ;
#152 = CIRCLE ( 'NONE', #219, 5.500000000000000000 ) ;
#153 = PERSON_AND_ORGANIZATION ( #168, #215 ) ;
#154 = CARTESIAN_POINT ( 'NONE',  ( 9.077851480992146724E-14, 4.499279347985567350E-32, 26.00000000000000000 ) ) ;
#155 = PLANE ( 'NONE',  #52 ) ;
#156 = CIRCLE ( 'NONE', #131, 6.000000000000000888 ) ;
#157 = DIRECTION ( 'NONE',  ( 1.000000000000000000, 0.0000000000000000000, -3.784851220313033947E-15 ) ) ;
#158 =( NAMED_UNIT ( * ) SI_UNIT ( $, .STERADIAN. ) SOLID_ANGLE_UNIT ( ) );
#159 = DIRECTION ( 'NONE',  ( -3.491481338843133355E-15, 0.0000000000000000000, -1.000000000000000000 ) ) ;
#160 = LOCAL_TIME ( 11, 46, 14.00000000000000000, #37 ) ;
#161 = ADVANCED_FACE ( 'NONE', ( #23, #177 ), #76, .T. ) ;
#162 = APPLICATION_PROTOCOL_DEFINITION ( 'international standard', 'config_control_design', 1994, #186 ) ;
#163 = EDGE_LOOP ( 'NONE', ( #167 ) ) ;
#164 = DIRECTION ( 'NONE',  ( 3.491481338843133355E-15, -0.0000000000000000000, 1.000000000000000000 ) ) ;
#165 = CARTESIAN_POINT ( 'NONE',  ( 6.000000000000003553, 0.0000000000000000000, 0.9999999999999779066 ) ) ;
#166 = CARTESIAN_POINT ( 'NONE',  ( 0.0000000000000000000, 0.0000000000000000000, 0.0000000000000000000 ) ) ;
#167 = ORIENTED_EDGE ( 'NONE', *, *, #258, .F. ) ;
#168 = PERSON ( 'UNSPECIFIED', 'UNSPECIFIED', 'UNSPECIFIED', ('UNSPECIFIED'), ('UNSPECIFIED'), ('UNSPECIFIED') ) ;
#169 = APPROVAL_ROLE ( '' ) ;
#170 = CARTESIAN_POINT ( 'NONE',  ( 3.491481338843129805E-15, 0.0000000000000000000, 0.9999999999999988898 ) ) ;
#171 = APPROVAL_STATUS ( 'not_yet_approved' ) ;
#172 = EDGE_LOOP ( 'NONE', ( #56 ) ) ;
#173 = CC_DESIGN_PERSON_AND_ORGANIZATION_ASSIGNMENT ( #252, #72, ( #81 ) ) ;
#174 = AXIS2_PLACEMENT_3D ( 'NONE', #137, #183, #212 ) ;
#175 = CARTESIAN_POINT ( 'NONE',  ( 9.077851480992146724E-14, 4.499279347985567350E-32, 26.00000000000000000 ) ) ;
#176 = AXIS2_PLACEMENT_3D ( 'NONE', #100, #181, #112 ) ;
#177 = FACE_OUTER_BOUND ( 'NONE', #163, .T. ) ;
#178 = CONICAL_SURFACE ( 'NONE', #138, 6.000000000000001776, 0.7853981633974511656 ) ;
#179 =( LENGTH_UNIT ( ) NAMED_UNIT ( * ) SI_UNIT ( .MILLI., .METRE. ) );
#180 = VERTEX_POINT ( 'NONE', #80 ) ;
#181 = DIRECTION ( 'NONE',  ( 0.0000000000000000000, 0.0000000000000000000, 1.000000000000000000 ) ) ;
#182 = DIRECTION ( 'NONE',  ( 1.000000000000000000, 0.0000000000000000000, -3.784851220313033947E-15 ) ) ;
#183 = DIRECTION ( 'NONE',  ( -3.491481338843133355E-15, 1.224646799147353207E-16, -1.000000000000000000 ) ) ;
#184 = CIRCLE ( 'NONE', #11, 6.000000000000000000 ) ;
#185 = COORDINATED_UNIVERSAL_TIME_OFFSET ( 1, 0, .AHEAD. ) ;
#186 = APPLICATION_CONTEXT ( 'configuration controlled 3d designs of mechanical parts and assemblies' ) ;
#187 = DIRECTION ( 'NONE',  ( 3.491481338843133355E-15, -0.0000000000000000000, 1.000000000000000000 ) ) ;
#188 = DIRECTION ( 'NONE',  ( -1.000000000000000000, 0.0000000000000000000, 3.491481338843133355E-15 ) ) ;
#189 = EDGE_LOOP ( 'NONE', ( #233 ) ) ;
#190 = DATE_TIME_ROLE ( 'classification_date' ) ;
#191 = PERSON_AND_ORGANIZATION_ROLE ( 'design_supplier' ) ;
#192 = ADVANCED_FACE ( 'NONE', ( #225 ), #147, .F. ) ;
#193 = DATE_AND_TIME ( #20, #242 ) ;
#194 = DIRECTION ( 'NONE',  ( -3.491481338843133355E-15, 1.224646799147353207E-16, -1.000000000000000000 ) ) ;
#195 = COORDINATED_UNIVERSAL_TIME_OFFSET ( 1, 0, .AHEAD. ) ;
#196 = CC_DESIGN_APPROVAL ( #7, ( #261 ) ) ;
#197 = EDGE_CURVE ( 'NONE', #180, #180, #54, .T. ) ;
#198 = CC_DESIGN_PERSON_AND_ORGANIZATION_ASSIGNMENT ( #60, #85, ( #261 ) ) ;
#199 = DIRECTION ( 'NONE',  ( 3.491481338843133355E-15, -0.0000000000000000000, 1.000000000000000000 ) ) ;
#200 = EDGE_LOOP ( 'NONE', ( #122 ) ) ;
#201 = CIRCLE ( 'NONE', #30, 5.500000000000000000 ) ;
#202 = DESIGN_CONTEXT ( 'detailed design', #110, 'design' ) ;
#203 = DIRECTION ( 'NONE',  ( 1.000000000000000000, 0.0000000000000000000, -3.491481338843133355E-15 ) ) ;
#204 =( NAMED_UNIT ( * ) PLANE_ANGLE_UNIT ( ) SI_UNIT ( $, .RADIAN. ) );
#205 = EDGE_LOOP ( 'NONE', ( #12 ) ) ;
#206 = CARTESIAN_POINT ( 'NONE',  ( 2.856031735173682958E-13, 5.999999999999991118, 81.79999999999999716 ) ) ;
#207 = CYLINDRICAL_SURFACE ( 'NONE', #59, 6.000000000000000000 ) ;
#208 = ORIENTED_EDGE ( 'NONE', *, *, #213, .T. ) ;
#209 = AXIS2_PLACEMENT_3D ( 'NONE', #102, #101, #246 ) ;
#210 = PRODUCT_RELATED_PRODUCT_CATEGORY ( 'detail', '', ( #234 ) ) ;
#211 = VERTEX_POINT ( 'NONE', #32 ) ;
#212 = DIRECTION ( 'NONE',  ( 0.0000000000000000000, 1.000000000000000000, 0.0000000000000000000 ) ) ;
#213 = EDGE_CURVE ( 'NONE', #104, #104, #184, .T. ) ;
#214 = EDGE_LOOP ( 'NONE', ( #142 ) ) ;
#215 = ORGANIZATION ( 'UNSPECIFIED', 'UNSPECIFIED', '' ) ;
#216 = ADVANCED_FACE ( 'NONE', ( #248, #231 ), #207, .T. ) ;
#217 = EDGE_LOOP ( 'NONE', ( #120 ) ) ;
#218 = EDGE_CURVE ( 'NONE', #70, #70, #201, .T. ) ;
#219 = AXIS2_PLACEMENT_3D ( 'NONE', #118, #164, #157 ) ;
#220 = PLANE ( 'NONE',  #135 ) ;
#221 = PERSON_AND_ORGANIZATION ( #168, #215 ) ;
#222 = DIRECTION ( 'NONE',  ( -3.491481338843133355E-15, 1.224646799147353207E-16, -1.000000000000000000 ) ) ;
#223 = AXIS2_PLACEMENT_3D ( 'NONE', #123, #82, #227 ) ;
#224 = ADVANCED_FACE ( 'NONE', ( #141 ), #6, .T. ) ;
#225 = FACE_OUTER_BOUND ( 'NONE', #28, .T. ) ;
#226 = DIRECTION ( 'NONE',  ( -3.491481338843133355E-15, 1.224646799147353207E-16, -1.000000000000000000 ) ) ;
#227 = DIRECTION ( 'NONE',  ( 0.0000000000000000000, 1.000000000000000000, 0.0000000000000000000 ) ) ;
#228 = FACE_OUTER_BOUND ( 'NONE', #217, .T. ) ;
#229 = PLANE ( 'NONE',  #62 ) ;
#230 = CIRCLE ( 'NONE', #223, 6.000000000000000000 ) ;
#231 = FACE_OUTER_BOUND ( 'NONE', #200, .T. ) ;
#232 = DIRECTION ( 'NONE',  ( 3.491481338843133355E-15, -1.224646799147353207E-16, 1.000000000000000000 ) ) ;
#233 = ORIENTED_EDGE ( 'NONE', *, *, #218, .F. ) ;
#234 = PRODUCT ( '339056', '339056', '', ( #92 ) ) ;
#235 = LOCAL_TIME ( 11, 46, 14.00000000000000000, #195 ) ;
#236 = DIRECTION ( 'NONE',  ( 1.000000000000000000, 0.0000000000000000000, -3.491481338843133355E-15 ) ) ;
#237 = CALENDAR_DATE ( 2021, 18, 11 ) ;
#238 = APPROVAL_DATE_TIME ( #93, #7 ) ;
#239 = EDGE_CURVE ( 'NONE', #29, #29, #119, .T. ) ;
#240 = DIRECTION ( 'NONE',  ( 3.491481338843133355E-15, -0.0000000000000000000, 1.000000000000000000 ) ) ;
#241 = DIRECTION ( 'NONE',  ( 3.491481338843133355E-15, -0.0000000000000000000, 1.000000000000000000 ) ) ;
#242 = LOCAL_TIME ( 11, 46, 14.00000000000000000, #149 ) ;
#243 = UNCERTAINTY_MEASURE_WITH_UNIT (LENGTH_MEASURE( 1.000000000000000082E-05 ), #179, 'distance_accuracy_value', 'NONE');
#244 = DIRECTION ( 'NONE',  ( 4.275831445896959482E-31, 1.000000000000000000, 1.224646799147353207E-16 ) ) ;
#245 = EDGE_LOOP ( 'NONE', ( #65 ) ) ;
#246 = DIRECTION ( 'NONE',  ( 4.275831445896959482E-31, 1.000000000000000000, 1.224646799147353207E-16 ) ) ;
#247 = APPROVAL ( #171, 'UNSPECIFIED' ) ;
#248 = FACE_OUTER_BOUND ( 'NONE', #19, .T. ) ;
#249 = ADVANCED_FACE ( 'NONE', ( #2, #228 ), #178, .T. ) ;
#250 = DIRECTION ( 'NONE',  ( 4.275831445896958607E-31, 1.000000000000000000, 1.224646799147353207E-16 ) ) ;
#251 = CC_DESIGN_SECURITY_CLASSIFICATION ( #81, ( #261 ) ) ;
#252 = PERSON_AND_ORGANIZATION ( #168, #215 ) ;
#253 = DIRECTION ( 'NONE',  ( 3.491481338843133355E-15, -0.0000000000000000000, 1.000000000000000000 ) ) ;
#254 = APPROVAL_DATE_TIME ( #130, #78 ) ;
#255 = ADVANCED_BREP_SHAPE_REPRESENTATION ( '339056', ( #113, #115, #176 ), #98 ) ;
#256 = SHAPE_DEFINITION_REPRESENTATION ( #145, #255 ) ;
#257 = PERSON_AND_ORGANIZATION_ROLE ( 'creator' ) ;
#258 = EDGE_CURVE ( 'NONE', #144, #144, #152, .T. ) ;
#259 = ADVANCED_FACE ( 'NONE', ( #68, #121 ), #33, .T. ) ;
#260 = ADVANCED_FACE ( 'NONE', ( #8, #83 ), #229, .T. ) ;
#261 = PRODUCT_DEFINITION_FORMATION_WITH_SPECIFIED_SOURCE ( 'ANY', '', #234, .NOT_KNOWN. ) ;
#262 = EDGE_CURVE ( 'NONE', #139, #139, #230, .T. ) ;
#263 = ORIENTED_EDGE ( 'NONE', *, *, #116, .F. ) ;
ENDSEC;
END-ISO-10303-21;
