ISO-10303-21;
HEADER;
FILE_DESCRIPTION (( 'STEP AP203' ),
    '1' );
FILE_NAME ('339055.step',
    '2021-11-18T10:46:13',
    ( '' ),
    ( '' ),
    'SwSTEP 2.0',
    'SolidWorks 2019',
    '' );
FILE_SCHEMA (( 'CONFIG_CONTROL_DESIGN' ));
ENDSEC;

DATA;
#1 = DIRECTION ( 'NONE',  ( 4.275831445896958607E-31, 1.000000000000000000, 1.224646799147353207E-16 ) ) ;
#2 = EDGE_LOOP ( 'NONE', ( #207 ) ) ;
#3 = PERSON_AND_ORGANIZATION ( #79, #71 ) ;
#4 =( GEOMETRIC_REPRESENTATION_CONTEXT ( 3 ) GLOBAL_UNCERTAINTY_ASSIGNED_CONTEXT ( ( #164 ) ) GLOBAL_UNIT_ASSIGNED_CONTEXT ( ( #96, #80, #128 ) ) REPRESENTATION_CONTEXT ( 'NONE', 'WORKASPACE' ) );
#5 = ADVANCED_FACE ( 'NONE', ( #81, #180 ), #262, .T. ) ;
#6 = DIRECTION ( 'NONE',  ( 1.000000000000000000, 0.0000000000000000000, -3.491481338843133355E-15 ) ) ;
#7 = FACE_BOUND ( 'NONE', #151, .T. ) ;
#8 = PERSON_AND_ORGANIZATION ( #79, #71 ) ;
#9 = ORIENTED_EDGE ( 'NONE', *, *, #65, .T. ) ;
#10 = FACE_OUTER_BOUND ( 'NONE', #57, .T. ) ;
#11 = CIRCLE ( 'NONE', #197, 6.000000000000000000 ) ;
#12 = FACE_OUTER_BOUND ( 'NONE', #44, .T. ) ;
#13 = PERSON_AND_ORGANIZATION ( #79, #71 ) ;
#14 = CC_DESIGN_PERSON_AND_ORGANIZATION_ASSIGNMENT ( #8, #90, ( #141 ) ) ;
#15 = ORIENTED_EDGE ( 'NONE', *, *, #250, .T. ) ;
#16 = PERSON_AND_ORGANIZATION_ROLE ( 'creator' ) ;
#17 = ORIENTED_EDGE ( 'NONE', *, *, #133, .T. ) ;
#18 = EDGE_LOOP ( 'NONE', ( #15 ) ) ;
#19 = DIRECTION ( 'NONE',  ( 3.491481338843133355E-15, -0.0000000000000000000, 1.000000000000000000 ) ) ;
#20 = CIRCLE ( 'NONE', #72, 6.000000000000000000 ) ;
#21 = ADVANCED_FACE ( 'NONE', ( #191 ), #77, .T. ) ;
#22 = CALENDAR_DATE ( 2021, 18, 11 ) ;
#23 = EDGE_CURVE ( 'NONE', #93, #93, #126, .T. ) ;
#24 = CIRCLE ( 'NONE', #64, 6.000000000000000888 ) ;
#25 = DATE_AND_TIME ( #22, #261 ) ;
#26 = APPLICATION_PROTOCOL_DEFINITION ( 'international standard', 'config_control_design', 1994, #204 ) ;
#27 = DIRECTION ( 'NONE',  ( 1.000000000000000000, 0.0000000000000000000, -3.784851220313033947E-15 ) ) ;
#28 = CC_DESIGN_APPROVAL ( #182, ( #243 ) ) ;
#29 = APPROVAL_DATE_TIME ( #138, #166 ) ;
#30 = CARTESIAN_POINT ( 'NONE',  ( 5.500000000000000888, 0.0000000000000000000, -2.007050910162564016E-14 ) ) ;
#31 = CARTESIAN_POINT ( 'NONE',  ( 9.077851480992146724E-14, 4.499279347985567350E-32, 26.00000000000000000 ) ) ;
#32 = CARTESIAN_POINT ( 'NONE',  ( 2.856031735173682958E-13, -1.001761081702534806E-14, 81.79999999999999716 ) ) ;
#33 = CARTESIAN_POINT ( 'NONE',  ( 1.745740669421562142E-15, 0.0000000000000000000, 0.4999999999999987232 ) ) ;
#34 = CALENDAR_DATE ( 2021, 18, 11 ) ;
#35 = ADVANCED_FACE ( 'NONE', ( #66, #233 ), #74, .T. ) ;
#36 = DIRECTION ( 'NONE',  ( -4.275831445896958607E-31, -1.000000000000000000, -1.224646799147353207E-16 ) ) ;
#37 = ORIENTED_EDGE ( 'NONE', *, *, #65, .F. ) ;
#38 = AXIS2_PLACEMENT_3D ( 'NONE', #31, #54, #210 ) ;
#39 = AXIS2_PLACEMENT_3D ( 'NONE', #94, #236, #253 ) ;
#40 = PLANE ( 'NONE',  #190 ) ;
#41 = CIRCLE ( 'NONE', #86, 4.800000000000002487 ) ;
#42 = EDGE_CURVE ( 'NONE', #114, #114, #11, .T. ) ;
#43 = MANIFOLD_SOLID_BREP ( 'Corps-Déplacer/Copier1[2]', #247 ) ;
#44 = EDGE_LOOP ( 'NONE', ( #221 ) ) ;
#45 = CARTESIAN_POINT ( 'NONE',  ( 9.077851480992146724E-14, 0.0000000000000000000, 26.00000000000000000 ) ) ;
#46 = CC_DESIGN_PERSON_AND_ORGANIZATION_ASSIGNMENT ( #234, #48, ( #243 ) ) ;
#47 = DIRECTION ( 'NONE',  ( -1.000000000000000000, 0.0000000000000000000, 3.491481338843133355E-15 ) ) ;
#48 = PERSON_AND_ORGANIZATION_ROLE ( 'classification_officer' ) ;
#49 = DIRECTION ( 'NONE',  ( 1.000000000000000000, 0.0000000000000000000, -3.487516988161706061E-15 ) ) ;
#50 = APPROVAL_STATUS ( 'not_yet_approved' ) ;
#51 = CC_DESIGN_PERSON_AND_ORGANIZATION_ASSIGNMENT ( #168, #252, ( #141 ) ) ;
#52 = FACE_OUTER_BOUND ( 'NONE', #162, .T. ) ;
#53 = CARTESIAN_POINT ( 'NONE',  ( -5.999999999999872102, -4.531193156845206004E-15, 37.00000000000001421 ) ) ;
#54 = DIRECTION ( 'NONE',  ( 3.491481338843133355E-15, -1.224646799147353207E-16, 1.000000000000000000 ) ) ;
#55 = CALENDAR_DATE ( 2021, 18, 11 ) ;
#56 = COORDINATED_UNIVERSAL_TIME_OFFSET ( 1, 0, .AHEAD. ) ;
#57 = EDGE_LOOP ( 'NONE', ( #208 ) ) ;
#58 = ORIENTED_EDGE ( 'NONE', *, *, #231, .F. ) ;
#59 = CALENDAR_DATE ( 2021, 18, 11 ) ;
#60 = LOCAL_TIME ( 11, 46, 13.00000000000000000, #153 ) ;
#61 = PRODUCT_RELATED_PRODUCT_CATEGORY ( 'detail', '', ( #232 ) ) ;
#62 = APPROVAL_STATUS ( 'not_yet_approved' ) ;
#63 = CARTESIAN_POINT ( 'NONE',  ( -1.282749433769087757E-30, 0.0000000000000000000, -3.673940397442059868E-16 ) ) ;
#64 = AXIS2_PLACEMENT_3D ( 'NONE', #177, #257, #237 ) ;
#65 = EDGE_CURVE ( 'NONE', #154, #154, #172, .T. ) ;
#66 = FACE_OUTER_BOUND ( 'NONE', #245, .T. ) ;
#67 = ORIENTED_EDGE ( 'NONE', *, *, #23, .F. ) ;
#68 = PLANE ( 'NONE',  #186 ) ;
#69 = SECURITY_CLASSIFICATION_LEVEL ( 'unclassified' ) ;
#70 = AXIS2_PLACEMENT_3D ( 'NONE', #189, #214, #47 ) ;
#71 = ORGANIZATION ( 'UNSPECIFIED', 'UNSPECIFIED', '' ) ;
#72 = AXIS2_PLACEMENT_3D ( 'NONE', #105, #84, #103 ) ;
#73 = CARTESIAN_POINT ( 'NONE',  ( 2.856031735173682958E-13, 5.999999999999991118, 81.79999999999999716 ) ) ;
#74 = PLANE ( 'NONE',  #70 ) ;
#75 = PERSON_AND_ORGANIZATION ( #79, #71 ) ;
#76 = ORIENTED_EDGE ( 'NONE', *, *, #144, .F. ) ;
#77 = PLANE ( 'NONE',  #38 ) ;
#78 = APPROVAL_PERSON_ORGANIZATION ( #13, #263, #258 ) ;
#79 = PERSON ( 'UNSPECIFIED', 'UNSPECIFIED', 'UNSPECIFIED', ('UNSPECIFIED'), ('UNSPECIFIED'), ('UNSPECIFIED') ) ;
#80 =( NAMED_UNIT ( * ) PLANE_ANGLE_UNIT ( ) SI_UNIT ( $, .RADIAN. ) );
#81 = FACE_OUTER_BOUND ( 'NONE', #87, .T. ) ;
#82 = APPROVAL_PERSON_ORGANIZATION ( #171, #166, #242 ) ;
#83 = APPROVAL_DATE_TIME ( #25, #182 ) ;
#84 = DIRECTION ( 'NONE',  ( -3.491481338843133355E-15, 1.224646799147353207E-16, -1.000000000000000000 ) ) ;
#85 = COORDINATED_UNIVERSAL_TIME_OFFSET ( 1, 0, .AHEAD. ) ;
#86 = AXIS2_PLACEMENT_3D ( 'NONE', #98, #194, #91 ) ;
#87 = EDGE_LOOP ( 'NONE', ( #193 ) ) ;
#88 = FACE_OUTER_BOUND ( 'NONE', #116, .T. ) ;
#89 = CARTESIAN_POINT ( 'NONE',  ( 1.745740669421562142E-15, 0.0000000000000000000, 0.4999999999999987232 ) ) ;
#90 = PERSON_AND_ORGANIZATION_ROLE ( 'creator' ) ;
#91 = DIRECTION ( 'NONE',  ( 0.0000000000000000000, 1.000000000000000000, 0.0000000000000000000 ) ) ;
#92 = DATE_AND_TIME ( #55, #222 ) ;
#93 = VERTEX_POINT ( 'NONE', #30 ) ;
#94 = CARTESIAN_POINT ( 'NONE',  ( 0.0000000000000000000, 0.0000000000000000000, 0.0000000000000000000 ) ) ;
#95 = CARTESIAN_POINT ( 'NONE',  ( 2.856031735173682958E-13, -1.001761081702534806E-14, 81.79999999999999716 ) ) ;
#96 =( LENGTH_UNIT ( ) NAMED_UNIT ( * ) SI_UNIT ( .MILLI., .METRE. ) );
#97 = EDGE_LOOP ( 'NONE', ( #17 ) ) ;
#98 = CARTESIAN_POINT ( 'NONE',  ( 2.897929511239800306E-13, -1.016456843292302992E-14, 82.99999999999998579 ) ) ;
#99 = DIRECTION ( 'NONE',  ( 4.275831445896958607E-31, 1.000000000000000000, 1.224646799147353207E-16 ) ) ;
#100 = CC_DESIGN_DATE_AND_TIME_ASSIGNMENT ( #218, #157, ( #220 ) ) ;
#101 = VERTEX_POINT ( 'NONE', #201 ) ;
#102 = ADVANCED_FACE ( 'NONE', ( #195, #211 ), #179, .T. ) ;
#103 = DIRECTION ( 'NONE',  ( 0.0000000000000000000, 1.000000000000000000, 0.0000000000000000000 ) ) ;
#104 = AXIS2_PLACEMENT_3D ( 'NONE', #95, #111, #152 ) ;
#105 = CARTESIAN_POINT ( 'NONE',  ( 9.077851480992146724E-14, -3.184081677783118191E-15, 26.00000000000000000 ) ) ;
#106 = EDGE_LOOP ( 'NONE', ( #37 ) ) ;
#107 = AXIS2_PLACEMENT_3D ( 'NONE', #130, #125, #27 ) ;
#108 = CC_DESIGN_APPROVAL ( #263, ( #220 ) ) ;
#109 = CARTESIAN_POINT ( 'NONE',  ( 0.0000000000000000000, 0.0000000000000000000, 0.0000000000000000000 ) ) ;
#110 = DIRECTION ( 'NONE',  ( -3.491481338843133355E-15, 1.224646799147353207E-16, -1.000000000000000000 ) ) ;
#111 = DIRECTION ( 'NONE',  ( -3.491481338843133355E-15, 1.224646799147353207E-16, -1.000000000000000000 ) ) ;
#112 = DIRECTION ( 'NONE',  ( 4.275831445896959482E-31, 1.000000000000000000, 1.224646799147353207E-16 ) ) ;
#113 = CALENDAR_DATE ( 2021, 18, 11 ) ;
#114 = VERTEX_POINT ( 'NONE', #174 ) ;
#115 = AXIS2_PLACEMENT_3D ( 'NONE', #109, #110, #112 ) ;
#116 = EDGE_LOOP ( 'NONE', ( #58 ) ) ;
#117 = CARTESIAN_POINT ( 'NONE',  ( 9.077851480992146724E-14, 5.999999999999996447, 26.00000000000000000 ) ) ;
#118 = AXIS2_PLACEMENT_3D ( 'NONE', #158, #224, #244 ) ;
#119 = CIRCLE ( 'NONE', #173, 6.000000000000001776 ) ;
#120 = CARTESIAN_POINT ( 'NONE',  ( -1.282749433769087757E-30, 4.499279347985572824E-32, -3.673940397442059868E-16 ) ) ;
#121 = ADVANCED_FACE ( 'NONE', ( #7, #12 ), #215, .T. ) ;
#122 = APPROVAL_ROLE ( '' ) ;
#123 = LOCAL_TIME ( 11, 46, 13.00000000000000000, #202 ) ;
#124 = EDGE_LOOP ( 'NONE', ( #259 ) ) ;
#125 = DIRECTION ( 'NONE',  ( 3.491481338843133355E-15, -0.0000000000000000000, 1.000000000000000000 ) ) ;
#126 = CIRCLE ( 'NONE', #148, 5.500000000000000888 ) ;
#127 = DIRECTION ( 'NONE',  ( 1.000000000000000000, 0.0000000000000000000, -3.491481338843133355E-15 ) ) ;
#128 =( NAMED_UNIT ( * ) SI_UNIT ( $, .STERADIAN. ) SOLID_ANGLE_UNIT ( ) );
#129 = VERTEX_POINT ( 'NONE', #53 ) ;
#130 = CARTESIAN_POINT ( 'NONE',  ( 1.291848095371959215E-13, 0.0000000000000000000, 37.00000000000000000 ) ) ;
#131 = MANIFOLD_SOLID_BREP ( 'Corps-Déplacer/Copier1[1]', #134 ) ;
#132 = FACE_OUTER_BOUND ( 'NONE', #124, .T. ) ;
#133 = EDGE_CURVE ( 'NONE', #129, #129, #24, .T. ) ;
#134 = CLOSED_SHELL ( 'NONE', ( #102, #121, #209, #161, #35, #142 ) ) ;
#135 = DIRECTION ( 'NONE',  ( -3.491481338843133355E-15, 1.224646799147353207E-16, -1.000000000000000000 ) ) ;
#136 = APPROVAL_DATE_TIME ( #92, #263 ) ;
#137 = DIRECTION ( 'NONE',  ( 0.0000000000000000000, 1.000000000000000000, 0.0000000000000000000 ) ) ;
#138 = DATE_AND_TIME ( #113, #143 ) ;
#139 = ADVANCED_FACE ( 'NONE', ( #132, #52 ), #198, .T. ) ;
#140 = EDGE_LOOP ( 'NONE', ( #9 ) ) ;
#141 = PRODUCT_DEFINITION_FORMATION_WITH_SPECIFIED_SOURCE ( 'ANY', '', #232, .NOT_KNOWN. ) ;
#142 = ADVANCED_FACE ( 'NONE', ( #88 ), #68, .F. ) ;
#143 = LOCAL_TIME ( 11, 46, 13.00000000000000000, #56 ) ;
#144 = EDGE_CURVE ( 'NONE', #219, #219, #41, .T. ) ;
#145 = APPLICATION_CONTEXT ( 'configuration controlled 3d designs of mechanical parts and assemblies' ) ;
#146 = CARTESIAN_POINT ( 'NONE',  ( -3.028377322213058170E-30, 0.0000000000000000000, -8.673617379884035472E-16 ) ) ;
#147 = DIRECTION ( 'NONE',  ( 3.491481338843133355E-15, -1.224646799147353207E-16, 1.000000000000000000 ) ) ;
#148 = AXIS2_PLACEMENT_3D ( 'NONE', #146, #150, #127 ) ;
#149 = AXIS2_PLACEMENT_3D ( 'NONE', #63, #19, #156 ) ;
#150 = DIRECTION ( 'NONE',  ( 3.491481338843133355E-15, -0.0000000000000000000, 1.000000000000000000 ) ) ;
#151 = EDGE_LOOP ( 'NONE', ( #184 ) ) ;
#152 = DIRECTION ( 'NONE',  ( 0.0000000000000000000, 1.000000000000000000, 0.0000000000000000000 ) ) ;
#153 = COORDINATED_UNIVERSAL_TIME_OFFSET ( 1, 0, .AHEAD. ) ;
#154 = VERTEX_POINT ( 'NONE', #217 ) ;
#155 = COORDINATED_UNIVERSAL_TIME_OFFSET ( 1, 0, .AHEAD. ) ;
#156 = DIRECTION ( 'NONE',  ( 1.000000000000000000, 0.0000000000000000000, -3.491481338843133355E-15 ) ) ;
#157 = DATE_TIME_ROLE ( 'creation_date' ) ;
#158 = CARTESIAN_POINT ( 'NONE',  ( 0.0000000000000000000, 0.0000000000000000000, 0.0000000000000000000 ) ) ;
#159 = APPROVAL_PERSON_ORGANIZATION ( #3, #182, #122 ) ;
#160 = PLANE ( 'NONE',  #206 ) ;
#161 = ADVANCED_FACE ( 'NONE', ( #10, #170 ), #163, .T. ) ;
#162 = EDGE_LOOP ( 'NONE', ( #169 ) ) ;
#163 = CYLINDRICAL_SURFACE ( 'NONE', #149, 5.500000000000000000 ) ;
#164 = UNCERTAINTY_MEASURE_WITH_UNIT (LENGTH_MEASURE( 1.000000000000000082E-05 ), #96, 'distance_accuracy_value', 'NONE');
#165 = DATE_AND_TIME ( #59, #123 ) ;
#166 = APPROVAL ( #50, 'UNSPECIFIED' ) ;
#167 = DIRECTION ( 'NONE',  ( 3.491481338843133355E-15, -0.0000000000000000000, 1.000000000000000000 ) ) ;
#168 = PERSON_AND_ORGANIZATION ( #79, #71 ) ;
#169 = ORIENTED_EDGE ( 'NONE', *, *, #42, .F. ) ;
#170 = FACE_OUTER_BOUND ( 'NONE', #106, .T. ) ;
#171 = PERSON_AND_ORGANIZATION ( #79, #71 ) ;
#172 = CIRCLE ( 'NONE', #107, 5.500000000000000000 ) ;
#173 = AXIS2_PLACEMENT_3D ( 'NONE', #32, #238, #137 ) ;
#174 = CARTESIAN_POINT ( 'NONE',  ( 6.000000000000001776, 0.0000000000000000000, 0.4999999999999777955 ) ) ;
#175 = EDGE_CURVE ( 'NONE', #235, #235, #20, .T. ) ;
#176 = EDGE_LOOP ( 'NONE', ( #67 ) ) ;
#177 = CARTESIAN_POINT ( 'NONE',  ( 1.291848095371958963E-13, -4.531193156845206004E-15, 36.99999999999999289 ) ) ;
#178 = ADVANCED_BREP_SHAPE_REPRESENTATION ( '339055', ( #131, #43, #39 ), #4 ) ;
#179 = CYLINDRICAL_SURFACE ( 'NONE', #115, 6.000000000000000888 ) ;
#180 = FACE_OUTER_BOUND ( 'NONE', #2, .T. ) ;
#181 = CC_DESIGN_DATE_AND_TIME_ASSIGNMENT ( #165, #228, ( #243 ) ) ;
#182 = APPROVAL ( #62, 'UNSPECIFIED' ) ;
#183 = FACE_OUTER_BOUND ( 'NONE', #200, .T. ) ;
#184 = ORIENTED_EDGE ( 'NONE', *, *, #144, .T. ) ;
#185 = ORIENTED_EDGE ( 'NONE', *, *, #133, .F. ) ;
#186 = AXIS2_PLACEMENT_3D ( 'NONE', #199, #147, #36 ) ;
#187 = DIRECTION ( 'NONE',  ( 1.000000000000000000, 0.0000000000000000000, -3.784851220313033947E-15 ) ) ;
#188 = CC_DESIGN_PERSON_AND_ORGANIZATION_ASSIGNMENT ( #192, #16, ( #220 ) ) ;
#189 = CARTESIAN_POINT ( 'NONE',  ( 1.291848095371958963E-13, 6.999999999999997335, 36.99999999999999289 ) ) ;
#190 = AXIS2_PLACEMENT_3D ( 'NONE', #120, #226, #1 ) ;
#191 = FACE_OUTER_BOUND ( 'NONE', #256, .T. ) ;
#192 = PERSON_AND_ORGANIZATION ( #79, #71 ) ;
#193 = ORIENTED_EDGE ( 'NONE', *, *, #42, .T. ) ;
#194 = DIRECTION ( 'NONE',  ( -3.491481338843133355E-15, 1.224646799147353207E-16, -1.000000000000000000 ) ) ;
#195 = FACE_OUTER_BOUND ( 'NONE', #18, .T. ) ;
#196 = PERSON_AND_ORGANIZATION_ROLE ( 'design_owner' ) ;
#197 = AXIS2_PLACEMENT_3D ( 'NONE', #33, #167, #49 ) ;
#198 = TOROIDAL_SURFACE ( 'NONE', #216, 5.500000000000000888, 0.4999999999999995559 ) ;
#199 = CARTESIAN_POINT ( 'NONE',  ( 9.077851480992146724E-14, 4.499279347985567350E-32, 26.00000000000000000 ) ) ;
#200 = EDGE_LOOP ( 'NONE', ( #76 ) ) ;
#201 = CARTESIAN_POINT ( 'NONE',  ( 5.500000000000090594, 0.0000000000000000000, 25.99999999999997868 ) ) ;
#202 = COORDINATED_UNIVERSAL_TIME_OFFSET ( 1, 0, .AHEAD. ) ;
#203 = ORIENTED_EDGE ( 'NONE', *, *, #175, .F. ) ;
#204 = APPLICATION_CONTEXT ( 'configuration controlled 3d designs of mechanical parts and assemblies' ) ;
#205 = SHAPE_DEFINITION_REPRESENTATION ( #212, #178 ) ;
#206 = AXIS2_PLACEMENT_3D ( 'NONE', #246, #135, #99 ) ;
#207 = ORIENTED_EDGE ( 'NONE', *, *, #175, .T. ) ;
#208 = ORIENTED_EDGE ( 'NONE', *, *, #231, .T. ) ;
#209 = ADVANCED_FACE ( 'NONE', ( #183 ), #160, .F. ) ;
#210 = DIRECTION ( 'NONE',  ( -4.275831445896958607E-31, -1.000000000000000000, -1.224646799147353207E-16 ) ) ;
#211 = FACE_OUTER_BOUND ( 'NONE', #97, .T. ) ;
#212 = PRODUCT_DEFINITION_SHAPE ( 'NONE', 'NONE',  #220 ) ;
#213 = CARTESIAN_POINT ( 'NONE',  ( 2.897929511239800306E-13, 4.799999999999991829, 82.99999999999998579 ) ) ;
#214 = DIRECTION ( 'NONE',  ( -3.491481338843133355E-15, 0.0000000000000000000, -1.000000000000000000 ) ) ;
#215 = CONICAL_SURFACE ( 'NONE', #104, 6.000000000000001776, 0.7853981633974511656 ) ;
#216 = AXIS2_PLACEMENT_3D ( 'NONE', #89, #251, #6 ) ;
#217 = CARTESIAN_POINT ( 'NONE',  ( 5.500000000000128786, 0.0000000000000000000, 36.99999999999997868 ) ) ;
#218 = DATE_AND_TIME ( #34, #60 ) ;
#219 = VERTEX_POINT ( 'NONE', #213 ) ;
#220 = PRODUCT_DEFINITION ( 'UNKNOWN', '', #141, #249 ) ;
#221 = ORIENTED_EDGE ( 'NONE', *, *, #250, .F. ) ;
#222 = LOCAL_TIME ( 11, 46, 13.00000000000000000, #155 ) ;
#223 = ADVANCED_FACE ( 'NONE', ( #225 ), #40, .T. ) ;
#224 = DIRECTION ( 'NONE',  ( -3.491481338843133355E-15, 1.224646799147353207E-16, -1.000000000000000000 ) ) ;
#225 = FACE_OUTER_BOUND ( 'NONE', #176, .T. ) ;
#226 = DIRECTION ( 'NONE',  ( -3.491481338843133355E-15, 1.224646799147353207E-16, -1.000000000000000000 ) ) ;
#227 = CC_DESIGN_APPROVAL ( #166, ( #141 ) ) ;
#228 = DATE_TIME_ROLE ( 'classification_date' ) ;
#229 = DIRECTION ( 'NONE',  ( 3.491481338843133355E-15, -0.0000000000000000000, 1.000000000000000000 ) ) ;
#230 = CC_DESIGN_SECURITY_CLASSIFICATION ( #243, ( #141 ) ) ;
#231 = EDGE_CURVE ( 'NONE', #101, #101, #248, .T. ) ;
#232 = PRODUCT ( '339055', '339055', '', ( #255 ) ) ;
#233 = FACE_BOUND ( 'NONE', #140, .T. ) ;
#234 = PERSON_AND_ORGANIZATION ( #79, #71 ) ;
#235 = VERTEX_POINT ( 'NONE', #117 ) ;
#236 = DIRECTION ( 'NONE',  ( 0.0000000000000000000, 0.0000000000000000000, 1.000000000000000000 ) ) ;
#237 = DIRECTION ( 'NONE',  ( -1.000000000000000000, 0.0000000000000000000, 3.469446951953613794E-15 ) ) ;
#238 = DIRECTION ( 'NONE',  ( -3.491481338843133355E-15, 1.224646799147353207E-16, -1.000000000000000000 ) ) ;
#239 = APPROVAL_STATUS ( 'not_yet_approved' ) ;
#240 = AXIS2_PLACEMENT_3D ( 'NONE', #45, #229, #187 ) ;
#241 = CC_DESIGN_PERSON_AND_ORGANIZATION_ASSIGNMENT ( #75, #196, ( #232 ) ) ;
#242 = APPROVAL_ROLE ( '' ) ;
#243 = SECURITY_CLASSIFICATION ( '', '', #69 ) ;
#244 = DIRECTION ( 'NONE',  ( 4.275831445896959482E-31, 1.000000000000000000, 1.224646799147353207E-16 ) ) ;
#245 = EDGE_LOOP ( 'NONE', ( #185 ) ) ;
#246 = CARTESIAN_POINT ( 'NONE',  ( 2.897929511239800306E-13, 1.735533076592498547E-30, 82.99999999999998579 ) ) ;
#247 = CLOSED_SHELL ( 'NONE', ( #5, #21, #139, #223 ) ) ;
#248 = CIRCLE ( 'NONE', #240, 5.500000000000000000 ) ;
#249 = DESIGN_CONTEXT ( 'detailed design', #145, 'design' ) ;
#250 = EDGE_CURVE ( 'NONE', #254, #254, #119, .T. ) ;
#251 = DIRECTION ( 'NONE',  ( 3.491481338843133355E-15, -0.0000000000000000000, 1.000000000000000000 ) ) ;
#252 = PERSON_AND_ORGANIZATION_ROLE ( 'design_supplier' ) ;
#253 = DIRECTION ( 'NONE',  ( 1.000000000000000000, 0.0000000000000000000, 0.0000000000000000000 ) ) ;
#254 = VERTEX_POINT ( 'NONE', #73 ) ;
#255 = MECHANICAL_CONTEXT ( 'NONE', #204, 'mechanical' ) ;
#256 = EDGE_LOOP ( 'NONE', ( #203 ) ) ;
#257 = DIRECTION ( 'NONE',  ( 3.491481338843133355E-15, -0.0000000000000000000, 1.000000000000000000 ) ) ;
#258 = APPROVAL_ROLE ( '' ) ;
#259 = ORIENTED_EDGE ( 'NONE', *, *, #23, .T. ) ;
#260 = APPLICATION_PROTOCOL_DEFINITION ( 'international standard', 'config_control_design', 1994, #145 ) ;
#261 = LOCAL_TIME ( 11, 46, 13.00000000000000000, #85 ) ;
#262 = CYLINDRICAL_SURFACE ( 'NONE', #118, 6.000000000000000000 ) ;
#263 = APPROVAL ( #239, 'UNSPECIFIED' ) ;
ENDSEC;
END-ISO-10303-21;
