ISO-10303-21;
HEADER;
FILE_DESCRIPTION (( 'STEP AP203' ),
    '1' );
FILE_NAME ('339054.step',
    '2021-11-18T10:46:12',
    ( '' ),
    ( '' ),
    'SwSTEP 2.0',
    'SolidWorks 2019',
    '' );
FILE_SCHEMA (( 'CONFIG_CONTROL_DESIGN' ));
ENDSEC;

DATA;
#1 = PLANE ( 'NONE',  #79 ) ;
#2 = CC_DESIGN_PERSON_AND_ORGANIZATION_ASSIGNMENT ( #65, #174, ( #255 ) ) ;
#3 = DIRECTION ( 'NONE',  ( 1.000000000000000000, 0.0000000000000000000, -3.730588120380230251E-15 ) ) ;
#4 = COORDINATED_UNIVERSAL_TIME_OFFSET ( 1, 0, .AHEAD. ) ;
#5 = EDGE_LOOP ( 'NONE', ( #141 ) ) ;
#6 = COORDINATED_UNIVERSAL_TIME_OFFSET ( 1, 0, .AHEAD. ) ;
#7 = CARTESIAN_POINT ( 'NONE',  ( 1.047444401652939533E-14, 0.0000000000000000000, 2.999999999999998668 ) ) ;
#8 = ORIENTED_EDGE ( 'NONE', *, *, #89, .F. ) ;
#9 = LOCAL_TIME ( 11, 46, 12.00000000000000000, #6 ) ;
#10 = FACE_OUTER_BOUND ( 'NONE', #62, .T. ) ;
#11 = APPROVAL ( #176, 'UNSPECIFIED' ) ;
#12 = DIRECTION ( 'NONE',  ( -3.491481338843133355E-15, 1.224646799147353207E-16, -1.000000000000000000 ) ) ;
#13 = ADVANCED_FACE ( 'NONE', ( #195, #10 ), #28, .T. ) ;
#14 = CARTESIAN_POINT ( 'NONE',  ( 2.478951750578623799E-13, 4.999999999999990230, 70.99999999999998579 ) ) ;
#15 = DIRECTION ( 'NONE',  ( -1.000000000000000000, 0.0000000000000000000, 3.491481338843133355E-15 ) ) ;
#16 = DATE_AND_TIME ( #23, #157 ) ;
#17 = DATE_AND_TIME ( #125, #135 ) ;
#18 = FACE_OUTER_BOUND ( 'NONE', #183, .T. ) ;
#19 = APPROVAL_PERSON_ORGANIZATION ( #107, #11, #44 ) ;
#20 = FACE_OUTER_BOUND ( 'NONE', #86, .T. ) ;
#21 = APPROVAL_DATE_TIME ( #17, #105 ) ;
#22 = UNCERTAINTY_MEASURE_WITH_UNIT (LENGTH_MEASURE( 1.000000000000000082E-05 ), #29, 'distance_accuracy_value', 'NONE');
#23 = CALENDAR_DATE ( 2021, 18, 11 ) ;
#24 = DIRECTION ( 'NONE',  ( 3.491481338843133355E-15, -1.224646799147353207E-16, 1.000000000000000000 ) ) ;
#25 = APPROVAL_DATE_TIME ( #194, #11 ) ;
#26 = ADVANCED_FACE ( 'NONE', ( #18, #184 ), #76, .T. ) ;
#27 = APPROVAL ( #87, 'UNSPECIFIED' ) ;
#28 = CYLINDRICAL_SURFACE ( 'NONE', #173, 4.650000000000000355 ) ;
#29 =( LENGTH_UNIT ( ) NAMED_UNIT ( * ) SI_UNIT ( .MILLI., .METRE. ) );
#30 = DIRECTION ( 'NONE',  ( -1.000000000000000000, 0.0000000000000000000, 3.469446951953614978E-15 ) ) ;
#31 = VERTEX_POINT ( 'NONE', #199 ) ;
#32 = AXIS2_PLACEMENT_3D ( 'NONE', #39, #204, #122 ) ;
#33 = CARTESIAN_POINT ( 'NONE',  ( 2.000000000000000444, 0.0000000000000000000, -8.717686153663075383E-15 ) ) ;
#34 = ADVANCED_FACE ( 'NONE', ( #207 ), #145, .T. ) ;
#35 = EDGE_LOOP ( 'NONE', ( #155 ) ) ;
#36 = CC_DESIGN_SECURITY_CLASSIFICATION ( #200, ( #66 ) ) ;
#37 = DIRECTION ( 'NONE',  ( -3.491481338843133355E-15, 1.224646799147353207E-16, -1.000000000000000000 ) ) ;
#38 = AXIS2_PLACEMENT_3D ( 'NONE', #90, #216, #161 ) ;
#39 = CARTESIAN_POINT ( 'NONE',  ( -6.056754644426116341E-30, 0.0000000000000000000, -1.734723475976807094E-15 ) ) ;
#40 = CALENDAR_DATE ( 2021, 18, 11 ) ;
#41 = FACE_OUTER_BOUND ( 'NONE', #230, .T. ) ;
#42 = SHAPE_DEFINITION_REPRESENTATION ( #213, #243 ) ;
#43 = DIRECTION ( 'NONE',  ( -3.491481338843133355E-15, 0.0000000000000000000, -1.000000000000000000 ) ) ;
#44 = APPROVAL_ROLE ( '' ) ;
#45 = EDGE_LOOP ( 'NONE', ( #192 ) ) ;
#46 = ORIENTED_EDGE ( 'NONE', *, *, #190, .T. ) ;
#47 = CIRCLE ( 'NONE', #235, 4.999999999999999112 ) ;
#48 = ADVANCED_FACE ( 'NONE', ( #221 ), #142, .F. ) ;
#49 = CC_DESIGN_DATE_AND_TIME_ASSIGNMENT ( #16, #189, ( #200 ) ) ;
#50 = VERTEX_POINT ( 'NONE', #14 ) ;
#51 = CARTESIAN_POINT ( 'NONE',  ( 4.650000000000105160, 0.0000000000000000000, 29.99999999999998224 ) ) ;
#52 = EDGE_CURVE ( 'NONE', #212, #212, #261, .T. ) ;
#53 = ORIENTED_EDGE ( 'NONE', *, *, #190, .F. ) ;
#54 = DIRECTION ( 'NONE',  ( -4.275831445896958607E-31, -1.000000000000000000, -1.224646799147353207E-16 ) ) ;
#55 = AXIS2_PLACEMENT_3D ( 'NONE', #247, #172, #61 ) ;
#56 = CC_DESIGN_PERSON_AND_ORGANIZATION_ASSIGNMENT ( #60, #127, ( #66 ) ) ;
#57 = CARTESIAN_POINT ( 'NONE',  ( 7.681258945454893382E-14, 3.749399456654640188E-32, 22.00000000000000000 ) ) ;
#58 = DIRECTION ( 'NONE',  ( 1.000000000000000000, 0.0000000000000000000, 0.0000000000000000000 ) ) ;
#59 = DIRECTION ( 'NONE',  ( 4.275831445896958607E-31, 1.000000000000000000, 1.224646799147353207E-16 ) ) ;
#60 = PERSON_AND_ORGANIZATION ( #146, #138 ) ;
#61 = DIRECTION ( 'NONE',  ( 4.275831445896958607E-31, 1.000000000000000000, 1.224646799147353207E-16 ) ) ;
#62 = EDGE_LOOP ( 'NONE', ( #118 ) ) ;
#63 = CIRCLE ( 'NONE', #144, 5.000000000000000000 ) ;
#64 = APPROVAL_DATE_TIME ( #98, #27 ) ;
#65 = PERSON_AND_ORGANIZATION ( #146, #138 ) ;
#66 = PRODUCT_DEFINITION_FORMATION_WITH_SPECIFIED_SOURCE ( 'ANY', '', #259, .NOT_KNOWN. ) ;
#67 =( GEOMETRIC_REPRESENTATION_CONTEXT ( 3 ) GLOBAL_UNCERTAINTY_ASSIGNED_CONTEXT ( ( #22 ) ) GLOBAL_UNIT_ASSIGNED_CONTEXT ( ( #29, #110, #91 ) ) REPRESENTATION_CONTEXT ( 'NONE', 'WORKASPACE' ) );
#68 = CC_DESIGN_DATE_AND_TIME_ASSIGNMENT ( #148, #149, ( #255 ) ) ;
#69 = CIRCLE ( 'NONE', #116, 3.999999999999998224 ) ;
#70 = CARTESIAN_POINT ( 'NONE',  ( 7.681258945454893382E-14, 4.999999999999997335, 22.00000000000000000 ) ) ;
#71 = ADVANCED_FACE ( 'NONE', ( #101 ), #1, .F. ) ;
#72 = AXIS2_PLACEMENT_3D ( 'NONE', #168, #188, #3 ) ;
#73 = CARTESIAN_POINT ( 'NONE',  ( 2.513866563967056016E-13, 3.999999999999989786, 72.00000000000000000 ) ) ;
#74 = ORIENTED_EDGE ( 'NONE', *, *, #211, .T. ) ;
#75 = EDGE_LOOP ( 'NONE', ( #74 ) ) ;
#76 = PLANE ( 'NONE',  #112 ) ;
#77 = ADVANCED_FACE ( 'NONE', ( #169, #20 ), #159, .T. ) ;
#78 = COORDINATED_UNIVERSAL_TIME_OFFSET ( 1, 0, .AHEAD. ) ;
#79 = AXIS2_PLACEMENT_3D ( 'NONE', #103, #119, #99 ) ;
#80 = DIRECTION ( 'NONE',  ( -3.491481338843133355E-15, 1.224646799147353207E-16, -1.000000000000000000 ) ) ;
#81 = APPLICATION_PROTOCOL_DEFINITION ( 'international standard', 'config_control_design', 1994, #210 ) ;
#82 = ADVANCED_FACE ( 'NONE', ( #41, #147 ), #220, .T. ) ;
#83 = DIRECTION ( 'NONE',  ( 0.0000000000000000000, 1.000000000000000000, 0.0000000000000000000 ) ) ;
#84 = DIRECTION ( 'NONE',  ( 0.0000000000000000000, 0.0000000000000000000, 1.000000000000000000 ) ) ;
#85 = FACE_OUTER_BOUND ( 'NONE', #131, .T. ) ;
#86 = EDGE_LOOP ( 'NONE', ( #53 ) ) ;
#87 = APPROVAL_STATUS ( 'not_yet_approved' ) ;
#88 = APPLICATION_PROTOCOL_DEFINITION ( 'international standard', 'config_control_design', 1994, #223 ) ;
#89 = EDGE_CURVE ( 'NONE', #31, #31, #133, .T. ) ;
#90 = CARTESIAN_POINT ( 'NONE',  ( 1.047444401652939533E-14, 0.0000000000000000000, 2.999999999999998668 ) ) ;
#91 =( NAMED_UNIT ( * ) SI_UNIT ( $, .STERADIAN. ) SOLID_ANGLE_UNIT ( ) );
#92 = AXIS2_PLACEMENT_3D ( 'NONE', #166, #242, #54 ) ;
#93 = VERTEX_POINT ( 'NONE', #51 ) ;
#94 = CARTESIAN_POINT ( 'NONE',  ( 1.047444401652940007E-13, 0.0000000000000000000, 30.00000000000000000 ) ) ;
#95 = APPROVAL_PERSON_ORGANIZATION ( #130, #105, #205 ) ;
#96 = CIRCLE ( 'NONE', #202, 4.650000000000000355 ) ;
#97 = CARTESIAN_POINT ( 'NONE',  ( 1.047444401652940007E-13, 5.999999999999996447, 30.00000000000000000 ) ) ;
#98 = DATE_AND_TIME ( #250, #9 ) ;
#99 = DIRECTION ( 'NONE',  ( 4.275831445896958607E-31, 1.000000000000000000, 1.224646799147353207E-16 ) ) ;
#100 = APPROVAL_ROLE ( '' ) ;
#101 = FACE_OUTER_BOUND ( 'NONE', #177, .T. ) ;
#102 = MANIFOLD_SOLID_BREP ( 'Corps-Déplacer/Copier1[2]', #163 ) ;
#103 = CARTESIAN_POINT ( 'NONE',  ( 2.513866563967056016E-13, 2.999519565323700984E-32, 72.00000000000000000 ) ) ;
#104 = PERSON_AND_ORGANIZATION ( #146, #138 ) ;
#105 = APPROVAL ( #120, 'UNSPECIFIED' ) ;
#106 = DIRECTION ( 'NONE',  ( -4.275831445896958607E-31, -1.000000000000000000, -1.224646799147353207E-16 ) ) ;
#107 = PERSON_AND_ORGANIZATION ( #146, #138 ) ;
#108 = AXIS2_PLACEMENT_3D ( 'NONE', #7, #206, #191 ) ;
#109 = MANIFOLD_SOLID_BREP ( 'Corps-Déplacer/Copier1[1]', #196 ) ;
#110 =( NAMED_UNIT ( * ) PLANE_ANGLE_UNIT ( ) SI_UNIT ( $, .RADIAN. ) );
#111 = LOCAL_TIME ( 11, 46, 12.00000000000000000, #4 ) ;
#112 = AXIS2_PLACEMENT_3D ( 'NONE', #97, #43, #15 ) ;
#113 = DIRECTION ( 'NONE',  ( 0.0000000000000000000, 1.000000000000000000, 0.0000000000000000000 ) ) ;
#114 = CARTESIAN_POINT ( 'NONE',  ( 1.047444401652940007E-13, -3.673940397442059178E-15, 30.00000000000000000 ) ) ;
#115 = EDGE_CURVE ( 'NONE', #181, #181, #63, .T. ) ;
#116 = AXIS2_PLACEMENT_3D ( 'NONE', #137, #258, #113 ) ;
#117 = DIRECTION ( 'NONE',  ( 4.275831445896958607E-31, 1.000000000000000000, 1.224646799147353207E-16 ) ) ;
#118 = ORIENTED_EDGE ( 'NONE', *, *, #211, .F. ) ;
#119 = DIRECTION ( 'NONE',  ( -3.491481338843133355E-15, 1.224646799147353207E-16, -1.000000000000000000 ) ) ;
#120 = APPROVAL_STATUS ( 'not_yet_approved' ) ;
#121 = PERSON_AND_ORGANIZATION ( #146, #138 ) ;
#122 = DIRECTION ( 'NONE',  ( 1.000000000000000000, 0.0000000000000000000, -3.491481338843133355E-15 ) ) ;
#123 = CARTESIAN_POINT ( 'NONE',  ( 0.0000000000000000000, 0.0000000000000000000, 0.0000000000000000000 ) ) ;
#124 = CYLINDRICAL_SURFACE ( 'NONE', #55, 5.000000000000000000 ) ;
#125 = CALENDAR_DATE ( 2021, 18, 11 ) ;
#126 = AXIS2_PLACEMENT_3D ( 'NONE', #251, #37, #117 ) ;
#127 = PERSON_AND_ORGANIZATION_ROLE ( 'design_supplier' ) ;
#128 = DIRECTION ( 'NONE',  ( 0.0000000000000000000, 1.000000000000000000, 0.0000000000000000000 ) ) ;
#129 = ORIENTED_EDGE ( 'NONE', *, *, #240, .F. ) ;
#130 = PERSON_AND_ORGANIZATION ( #146, #138 ) ;
#131 = EDGE_LOOP ( 'NONE', ( #143 ) ) ;
#132 = CC_DESIGN_APPROVAL ( #105, ( #66 ) ) ;
#133 = CIRCLE ( 'NONE', #72, 4.650000000000000355 ) ;
#134 = ADVANCED_FACE ( 'NONE', ( #224 ), #186, .T. ) ;
#135 = LOCAL_TIME ( 11, 46, 12.00000000000000000, #78 ) ;
#136 = VERTEX_POINT ( 'NONE', #201 ) ;
#137 = CARTESIAN_POINT ( 'NONE',  ( 2.513866563967056016E-13, -8.817456953860941711E-15, 72.00000000000000000 ) ) ;
#138 = ORGANIZATION ( 'UNSPECIFIED', 'UNSPECIFIED', '' ) ;
#139 = DIRECTION ( 'NONE',  ( 3.491481338843133355E-15, -0.0000000000000000000, 1.000000000000000000 ) ) ;
#140 = PRODUCT_RELATED_PRODUCT_CATEGORY ( 'detail', '', ( #259 ) ) ;
#141 = ORIENTED_EDGE ( 'NONE', *, *, #237, .T. ) ;
#142 = PLANE ( 'NONE',  #156 ) ;
#143 = ORIENTED_EDGE ( 'NONE', *, *, #233, .T. ) ;
#144 = AXIS2_PLACEMENT_3D ( 'NONE', #244, #80, #83 ) ;
#145 = PLANE ( 'NONE',  #92 ) ;
#146 = PERSON ( 'UNSPECIFIED', 'UNSPECIFIED', 'UNSPECIFIED', ('UNSPECIFIED'), ('UNSPECIFIED'), ('UNSPECIFIED') ) ;
#147 = FACE_OUTER_BOUND ( 'NONE', #208, .T. ) ;
#148 = DATE_AND_TIME ( #154, #111 ) ;
#149 = DATE_TIME_ROLE ( 'creation_date' ) ;
#150 = SECURITY_CLASSIFICATION_LEVEL ( 'unclassified' ) ;
#151 = FACE_OUTER_BOUND ( 'NONE', #241, .T. ) ;
#152 = MECHANICAL_CONTEXT ( 'NONE', #210, 'mechanical' ) ;
#153 = EDGE_LOOP ( 'NONE', ( #165 ) ) ;
#154 = CALENDAR_DATE ( 2021, 18, 11 ) ;
#155 = ORIENTED_EDGE ( 'NONE', *, *, #89, .T. ) ;
#156 = AXIS2_PLACEMENT_3D ( 'NONE', #57, #24, #106 ) ;
#157 = LOCAL_TIME ( 11, 46, 12.00000000000000000, #225 ) ;
#158 = ADVANCED_FACE ( 'NONE', ( #85, #226 ), #124, .T. ) ;
#159 = CONICAL_SURFACE ( 'NONE', #257, 4.999999999999999112, 0.7853981633974415066 ) ;
#160 = CC_DESIGN_PERSON_AND_ORGANIZATION_ASSIGNMENT ( #104, #170, ( #200 ) ) ;
#161 = DIRECTION ( 'NONE',  ( 1.000000000000000000, 0.0000000000000000000, -3.469446951953613400E-15 ) ) ;
#162 = CC_DESIGN_APPROVAL ( #11, ( #255 ) ) ;
#163 = CLOSED_SHELL ( 'NONE', ( #158, #34, #82, #134 ) ) ;
#164 = ORIENTED_EDGE ( 'NONE', *, *, #115, .F. ) ;
#165 = ORIENTED_EDGE ( 'NONE', *, *, #115, .T. ) ;
#166 = CARTESIAN_POINT ( 'NONE',  ( 7.681258945454893382E-14, 3.749399456654640188E-32, 22.00000000000000000 ) ) ;
#167 = PERSON_AND_ORGANIZATION_ROLE ( 'creator' ) ;
#168 = CARTESIAN_POINT ( 'NONE',  ( 7.681258945454893382E-14, 0.0000000000000000000, 22.00000000000000000 ) ) ;
#169 = FACE_BOUND ( 'NONE', #5, .T. ) ;
#170 = PERSON_AND_ORGANIZATION_ROLE ( 'classification_officer' ) ;
#171 = CARTESIAN_POINT ( 'NONE',  ( -1.068957861474239564E-30, 3.749399456654644020E-32, -3.061616997868383141E-16 ) ) ;
#172 = DIRECTION ( 'NONE',  ( -3.491481338843133355E-15, 1.224646799147353207E-16, -1.000000000000000000 ) ) ;
#173 = AXIS2_PLACEMENT_3D ( 'NONE', #209, #231, #262 ) ;
#174 = PERSON_AND_ORGANIZATION_ROLE ( 'creator' ) ;
#175 = EDGE_LOOP ( 'NONE', ( #8 ) ) ;
#176 = APPROVAL_STATUS ( 'not_yet_approved' ) ;
#177 = EDGE_LOOP ( 'NONE', ( #252 ) ) ;
#178 = ADVANCED_FACE ( 'NONE', ( #218, #151 ), #227, .T. ) ;
#179 = LOCAL_TIME ( 11, 46, 12.00000000000000000, #222 ) ;
#180 = DIRECTION ( 'NONE',  ( 0.0000000000000000000, 1.000000000000000000, 0.0000000000000000000 ) ) ;
#181 = VERTEX_POINT ( 'NONE', #70 ) ;
#182 = VERTEX_POINT ( 'NONE', #214 ) ;
#183 = EDGE_LOOP ( 'NONE', ( #129 ) ) ;
#184 = FACE_BOUND ( 'NONE', #75, .T. ) ;
#185 = CARTESIAN_POINT ( 'NONE',  ( 2.478951750578623799E-13, -8.694992273946204985E-15, 70.99999999999998579 ) ) ;
#186 = PLANE ( 'NONE',  #215 ) ;
#187 = PERSON_AND_ORGANIZATION ( #146, #138 ) ;
#188 = DIRECTION ( 'NONE',  ( 3.491481338843133355E-15, -0.0000000000000000000, 1.000000000000000000 ) ) ;
#189 = DATE_TIME_ROLE ( 'classification_date' ) ;
#190 = EDGE_CURVE ( 'NONE', #50, #50, #47, .T. ) ;
#191 = DIRECTION ( 'NONE',  ( 1.000000000000000000, 0.0000000000000000000, -3.491481338843133355E-15 ) ) ;
#192 = ORIENTED_EDGE ( 'NONE', *, *, #52, .F. ) ;
#193 = CIRCLE ( 'NONE', #38, 5.000000000000000888 ) ;
#194 = DATE_AND_TIME ( #40, #179 ) ;
#195 = FACE_OUTER_BOUND ( 'NONE', #35, .T. ) ;
#196 = CLOSED_SHELL ( 'NONE', ( #178, #77, #71, #13, #26, #48 ) ) ;
#197 = CC_DESIGN_PERSON_AND_ORGANIZATION_ASSIGNMENT ( #228, #246, ( #259 ) ) ;
#198 = CIRCLE ( 'NONE', #232, 4.999999999999999112 ) ;
#199 = CARTESIAN_POINT ( 'NONE',  ( 4.650000000000077627, 0.0000000000000000000, 21.99999999999998224 ) ) ;
#200 = SECURITY_CLASSIFICATION ( '', '', #150 ) ;
#201 = CARTESIAN_POINT ( 'NONE',  ( -4.999999999999894307, -3.673940397442059178E-15, 30.00000000000001776 ) ) ;
#202 = AXIS2_PLACEMENT_3D ( 'NONE', #94, #139, #238 ) ;
#203 = CARTESIAN_POINT ( 'NONE',  ( 2.478951750578623799E-13, -8.694992273946204985E-15, 70.99999999999998579 ) ) ;
#204 = DIRECTION ( 'NONE',  ( 3.491481338843133355E-15, -0.0000000000000000000, 1.000000000000000000 ) ) ;
#205 = APPROVAL_ROLE ( '' ) ;
#206 = DIRECTION ( 'NONE',  ( 3.491481338843133355E-15, -0.0000000000000000000, 1.000000000000000000 ) ) ;
#207 = FACE_OUTER_BOUND ( 'NONE', #248, .T. ) ;
#208 = EDGE_LOOP ( 'NONE', ( #229 ) ) ;
#209 = CARTESIAN_POINT ( 'NONE',  ( -1.282749433769087757E-30, 0.0000000000000000000, -3.673940397442059868E-16 ) ) ;
#210 = APPLICATION_CONTEXT ( 'configuration controlled 3d designs of mechanical parts and assemblies' ) ;
#211 = EDGE_CURVE ( 'NONE', #93, #93, #96, .T. ) ;
#212 = VERTEX_POINT ( 'NONE', #33 ) ;
#213 = PRODUCT_DEFINITION_SHAPE ( 'NONE', 'NONE',  #255 ) ;
#214 = CARTESIAN_POINT ( 'NONE',  ( 5.000000000000011546, 0.0000000000000000000, 2.999999999999981348 ) ) ;
#215 = AXIS2_PLACEMENT_3D ( 'NONE', #171, #245, #59 ) ;
#216 = DIRECTION ( 'NONE',  ( 3.491481338843133355E-15, -0.0000000000000000000, 1.000000000000000000 ) ) ;
#217 = EDGE_LOOP ( 'NONE', ( #46 ) ) ;
#218 = FACE_OUTER_BOUND ( 'NONE', #217, .T. ) ;
#219 = ORIENTED_EDGE ( 'NONE', *, *, #52, .T. ) ;
#220 = TOROIDAL_SURFACE ( 'NONE', #108, 2.000000000000000000, 3.000000000000000444 ) ;
#221 = FACE_OUTER_BOUND ( 'NONE', #175, .T. ) ;
#222 = COORDINATED_UNIVERSAL_TIME_OFFSET ( 1, 0, .AHEAD. ) ;
#223 = APPLICATION_CONTEXT ( 'configuration controlled 3d designs of mechanical parts and assemblies' ) ;
#224 = FACE_OUTER_BOUND ( 'NONE', #45, .T. ) ;
#225 = COORDINATED_UNIVERSAL_TIME_OFFSET ( 1, 0, .AHEAD. ) ;
#226 = FACE_OUTER_BOUND ( 'NONE', #153, .T. ) ;
#227 = CYLINDRICAL_SURFACE ( 'NONE', #126, 4.999999999999999112 ) ;
#228 = PERSON_AND_ORGANIZATION ( #146, #138 ) ;
#229 = ORIENTED_EDGE ( 'NONE', *, *, #233, .F. ) ;
#230 = EDGE_LOOP ( 'NONE', ( #219 ) ) ;
#231 = DIRECTION ( 'NONE',  ( 3.491481338843133355E-15, -0.0000000000000000000, 1.000000000000000000 ) ) ;
#232 = AXIS2_PLACEMENT_3D ( 'NONE', #114, #236, #30 ) ;
#233 = EDGE_CURVE ( 'NONE', #182, #182, #193, .T. ) ;
#234 = CC_DESIGN_APPROVAL ( #27, ( #200 ) ) ;
#235 = AXIS2_PLACEMENT_3D ( 'NONE', #203, #12, #180 ) ;
#236 = DIRECTION ( 'NONE',  ( 3.491481338843133355E-15, -0.0000000000000000000, 1.000000000000000000 ) ) ;
#237 = EDGE_CURVE ( 'NONE', #239, #239, #69, .T. ) ;
#238 = DIRECTION ( 'NONE',  ( 1.000000000000000000, 0.0000000000000000000, -3.730588120380230251E-15 ) ) ;
#239 = VERTEX_POINT ( 'NONE', #73 ) ;
#240 = EDGE_CURVE ( 'NONE', #136, #136, #198, .T. ) ;
#241 = EDGE_LOOP ( 'NONE', ( #253 ) ) ;
#242 = DIRECTION ( 'NONE',  ( 3.491481338843133355E-15, -1.224646799147353207E-16, 1.000000000000000000 ) ) ;
#243 = ADVANCED_BREP_SHAPE_REPRESENTATION ( '339054', ( #109, #102, #256 ), #67 ) ;
#244 = CARTESIAN_POINT ( 'NONE',  ( 7.681258945454893382E-14, -2.694222958124176809E-15, 22.00000000000000000 ) ) ;
#245 = DIRECTION ( 'NONE',  ( -3.491481338843133355E-15, 1.224646799147353207E-16, -1.000000000000000000 ) ) ;
#246 = PERSON_AND_ORGANIZATION_ROLE ( 'design_owner' ) ;
#247 = CARTESIAN_POINT ( 'NONE',  ( 0.0000000000000000000, 0.0000000000000000000, 0.0000000000000000000 ) ) ;
#248 = EDGE_LOOP ( 'NONE', ( #164 ) ) ;
#249 = DESIGN_CONTEXT ( 'detailed design', #223, 'design' ) ;
#250 = CALENDAR_DATE ( 2021, 18, 11 ) ;
#251 = CARTESIAN_POINT ( 'NONE',  ( 0.0000000000000000000, 0.0000000000000000000, 0.0000000000000000000 ) ) ;
#252 = ORIENTED_EDGE ( 'NONE', *, *, #237, .F. ) ;
#253 = ORIENTED_EDGE ( 'NONE', *, *, #240, .T. ) ;
#254 = CC_DESIGN_PERSON_AND_ORGANIZATION_ASSIGNMENT ( #187, #167, ( #66 ) ) ;
#255 = PRODUCT_DEFINITION ( 'UNKNOWN', '', #66, #249 ) ;
#256 = AXIS2_PLACEMENT_3D ( 'NONE', #123, #84, #58 ) ;
#257 = AXIS2_PLACEMENT_3D ( 'NONE', #185, #263, #128 ) ;
#258 = DIRECTION ( 'NONE',  ( -3.491481338843133355E-15, 1.224646799147353207E-16, -1.000000000000000000 ) ) ;
#259 = PRODUCT ( '339054', '339054', '', ( #152 ) ) ;
#260 = APPROVAL_PERSON_ORGANIZATION ( #121, #27, #100 ) ;
#261 = CIRCLE ( 'NONE', #32, 2.000000000000000444 ) ;
#262 = DIRECTION ( 'NONE',  ( 1.000000000000000000, 0.0000000000000000000, -3.491481338843133750E-15 ) ) ;
#263 = DIRECTION ( 'NONE',  ( -3.491481338843133355E-15, 1.224646799147353207E-16, -1.000000000000000000 ) ) ;
ENDSEC;
END-ISO-10303-21;
