ISO-10303-21;
HEADER;
FILE_DESCRIPTION (( 'STEP AP203' ),
    '1' );
FILE_NAME ('339053.step',
    '2021-11-18T10:46:12',
    ( '' ),
    ( '' ),
    'SwSTEP 2.0',
    'SolidWorks 2019',
    '' );
FILE_SCHEMA (( 'CONFIG_CONTROL_DESIGN' ));
ENDSEC;

DATA;
#1 = PERSON_AND_ORGANIZATION ( #195, #175 ) ;
#2 =( LENGTH_UNIT ( ) NAMED_UNIT ( * ) SI_UNIT ( .MILLI., .METRE. ) );
#3 = EDGE_LOOP ( 'NONE', ( #158 ) ) ;
#4 = COORDINATED_UNIVERSAL_TIME_OFFSET ( 1, 0, .AHEAD. ) ;
#5 = DIRECTION ( 'NONE',  ( 3.491481338843133355E-15, -1.224646799147353207E-16, 1.000000000000000000 ) ) ;
#6 = CARTESIAN_POINT ( 'NONE',  ( 7.681258945454893382E-14, 4.999999999999997335, 22.00000000000000000 ) ) ;
#7 = PERSON_AND_ORGANIZATION_ROLE ( 'design_owner' ) ;
#8 = CIRCLE ( 'NONE', #135, 3.000000000000000444 ) ;
#9 = CC_DESIGN_PERSON_AND_ORGANIZATION_ASSIGNMENT ( #1, #223, ( #263 ) ) ;
#10 = MANIFOLD_SOLID_BREP ( 'Corps-Déplacer/Copier1[1]', #128 ) ;
#11 = CALENDAR_DATE ( 2021, 18, 11 ) ;
#12 = CARTESIAN_POINT ( 'NONE',  ( 7.681258945454893382E-14, 0.0000000000000000000, 22.00000000000000000 ) ) ;
#13 = COORDINATED_UNIVERSAL_TIME_OFFSET ( 1, 0, .AHEAD. ) ;
#14 = CC_DESIGN_DATE_AND_TIME_ASSIGNMENT ( #243, #183, ( #69 ) ) ;
#15 = AXIS2_PLACEMENT_3D ( 'NONE', #22, #141, #254 ) ;
#16 = CALENDAR_DATE ( 2021, 18, 11 ) ;
#17 = APPROVAL_STATUS ( 'not_yet_approved' ) ;
#18 = DIRECTION ( 'NONE',  ( -4.275831445896958607E-31, -1.000000000000000000, -1.224646799147353207E-16 ) ) ;
#19 = FACE_OUTER_BOUND ( 'NONE', #229, .T. ) ;
#20 = APPROVAL ( #129, 'UNSPECIFIED' ) ;
#21 = DIRECTION ( 'NONE',  ( -3.491481338843133355E-15, 1.224646799147353207E-16, -1.000000000000000000 ) ) ;
#22 = CARTESIAN_POINT ( 'NONE',  ( -1.068957861474239564E-30, 3.749399456654644020E-32, -3.061616997868383141E-16 ) ) ;
#23 = UNCERTAINTY_MEASURE_WITH_UNIT (LENGTH_MEASURE( 1.000000000000000082E-05 ), #2, 'distance_accuracy_value', 'NONE');
#24 = DIRECTION ( 'NONE',  ( 3.491481338843133355E-15, -0.0000000000000000000, 1.000000000000000000 ) ) ;
#25 = EDGE_LOOP ( 'NONE', ( #80 ) ) ;
#26 = ORIENTED_EDGE ( 'NONE', *, *, #103, .T. ) ;
#27 = APPLICATION_PROTOCOL_DEFINITION ( 'international standard', 'config_control_design', 1994, #33 ) ;
#28 = CIRCLE ( 'NONE', #196, 5.000000000000000000 ) ;
#29 = CC_DESIGN_SECURITY_CLASSIFICATION ( #69, ( #263 ) ) ;
#30 = DIRECTION ( 'NONE',  ( 0.0000000000000000000, 1.000000000000000000, 0.0000000000000000000 ) ) ;
#31 = DIRECTION ( 'NONE',  ( 1.000000000000000000, 0.0000000000000000000, -3.469446951953614189E-15 ) ) ;
#32 = DIRECTION ( 'NONE',  ( 1.000000000000000000, 0.0000000000000000000, -3.491481338843133355E-15 ) ) ;
#33 = APPLICATION_CONTEXT ( 'configuration controlled 3d designs of mechanical parts and assemblies' ) ;
#34 = VERTEX_POINT ( 'NONE', #71 ) ;
#35 = DIRECTION ( 'NONE',  ( 1.000000000000000000, 0.0000000000000000000, 0.0000000000000000000 ) ) ;
#36 = VERTEX_POINT ( 'NONE', #107 ) ;
#37 = CONICAL_SURFACE ( 'NONE', #58, 4.999999999999999112, 0.7853981633974415066 ) ;
#38 = AXIS2_PLACEMENT_3D ( 'NONE', #101, #208, #32 ) ;
#39 = APPROVAL ( #17, 'UNSPECIFIED' ) ;
#40 = CARTESIAN_POINT ( 'NONE',  ( 2.513866563967056016E-13, 2.999519565323700984E-32, 72.00000000000000000 ) ) ;
#41 = PLANE ( 'NONE',  #89 ) ;
#42 = CC_DESIGN_APPROVAL ( #189, ( #69 ) ) ;
#43 = CLOSED_SHELL ( 'NONE', ( #261, #257, #216, #112 ) ) ;
#44 = ORIENTED_EDGE ( 'NONE', *, *, #241, .T. ) ;
#45 = VERTEX_POINT ( 'NONE', #122 ) ;
#46 = CARTESIAN_POINT ( 'NONE',  ( 0.0000000000000000000, 0.0000000000000000000, 0.0000000000000000000 ) ) ;
#47 = DIRECTION ( 'NONE',  ( -3.491481338843133355E-15, 0.0000000000000000000, -1.000000000000000000 ) ) ;
#48 = VERTEX_POINT ( 'NONE', #6 ) ;
#49 = LOCAL_TIME ( 11, 46, 12.00000000000000000, #170 ) ;
#50 = ORIENTED_EDGE ( 'NONE', *, *, #202, .T. ) ;
#51 = MECHANICAL_CONTEXT ( 'NONE', #33, 'mechanical' ) ;
#52 = DIRECTION ( 'NONE',  ( 3.491481338843133355E-15, -0.0000000000000000000, 1.000000000000000000 ) ) ;
#53 = CARTESIAN_POINT ( 'NONE',  ( -1.282749433769087757E-30, 0.0000000000000000000, -3.673940397442059868E-16 ) ) ;
#54 = AXIS2_PLACEMENT_3D ( 'NONE', #110, #199, #237 ) ;
#55 = CYLINDRICAL_SURFACE ( 'NONE', #99, 4.999999999999999112 ) ;
#56 = CARTESIAN_POINT ( 'NONE',  ( 0.0000000000000000000, 0.0000000000000000000, 0.0000000000000000000 ) ) ;
#57 = DIRECTION ( 'NONE',  ( 4.275831445896958607E-31, 1.000000000000000000, 1.224646799147353207E-16 ) ) ;
#58 = AXIS2_PLACEMENT_3D ( 'NONE', #74, #93, #174 ) ;
#59 = ORIENTED_EDGE ( 'NONE', *, *, #262, .F. ) ;
#60 = ORIENTED_EDGE ( 'NONE', *, *, #202, .F. ) ;
#61 = AXIS2_PLACEMENT_3D ( 'NONE', #46, #145, #35 ) ;
#62 = EDGE_LOOP ( 'NONE', ( #44 ) ) ;
#63 = PERSON_AND_ORGANIZATION ( #195, #175 ) ;
#64 = DIRECTION ( 'NONE',  ( -1.000000000000000000, 0.0000000000000000000, 3.469446951953614978E-15 ) ) ;
#65 = EDGE_LOOP ( 'NONE', ( #143 ) ) ;
#66 = CALENDAR_DATE ( 2021, 18, 11 ) ;
#67 = PERSON_AND_ORGANIZATION ( #195, #175 ) ;
#68 = LOCAL_TIME ( 11, 46, 12.00000000000000000, #4 ) ;
#69 = SECURITY_CLASSIFICATION ( '', '', #127 ) ;
#70 = DIRECTION ( 'NONE',  ( -1.000000000000000000, 0.0000000000000000000, 3.491481338843133355E-15 ) ) ;
#71 = CARTESIAN_POINT ( 'NONE',  ( 4.650000000000077627, 0.0000000000000000000, 21.99999999999998224 ) ) ;
#72 = VERTEX_POINT ( 'NONE', #134 ) ;
#73 = SHAPE_DEFINITION_REPRESENTATION ( #246, #173 ) ;
#74 = CARTESIAN_POINT ( 'NONE',  ( 2.478951750578623799E-13, -8.694992273946204985E-15, 70.99999999999998579 ) ) ;
#75 = AXIS2_PLACEMENT_3D ( 'NONE', #182, #5, #85 ) ;
#76 = FACE_BOUND ( 'NONE', #131, .T. ) ;
#77 = DIRECTION ( 'NONE',  ( -3.491481338843133355E-15, 1.224646799147353207E-16, -1.000000000000000000 ) ) ;
#78 = DIRECTION ( 'NONE',  ( 0.0000000000000000000, 1.000000000000000000, 0.0000000000000000000 ) ) ;
#79 = CC_DESIGN_APPROVAL ( #39, ( #263 ) ) ;
#80 = ORIENTED_EDGE ( 'NONE', *, *, #217, .T. ) ;
#81 = AXIS2_PLACEMENT_3D ( 'NONE', #218, #77, #57 ) ;
#82 =( NAMED_UNIT ( * ) PLANE_ANGLE_UNIT ( ) SI_UNIT ( $, .RADIAN. ) );
#83 =( NAMED_UNIT ( * ) SI_UNIT ( $, .STERADIAN. ) SOLID_ANGLE_UNIT ( ) );
#84 = CIRCLE ( 'NONE', #250, 4.999999999999999112 ) ;
#85 = DIRECTION ( 'NONE',  ( -4.275831445896958607E-31, -1.000000000000000000, -1.224646799147353207E-16 ) ) ;
#86 = CIRCLE ( 'NONE', #224, 4.650000000000000355 ) ;
#87 = DATE_AND_TIME ( #166, #179 ) ;
#88 = CARTESIAN_POINT ( 'NONE',  ( 2.513866563967056016E-13, 3.999999999999989786, 72.00000000000000000 ) ) ;
#89 = AXIS2_PLACEMENT_3D ( 'NONE', #40, #21, #152 ) ;
#90 = APPROVAL_ROLE ( '' ) ;
#91 = APPROVAL_DATE_TIME ( #167, #20 ) ;
#92 = MANIFOLD_SOLID_BREP ( 'Corps-Déplacer/Copier1[2]', #43 ) ;
#93 = DIRECTION ( 'NONE',  ( -3.491481338843133355E-15, 1.224646799147353207E-16, -1.000000000000000000 ) ) ;
#94 = CC_DESIGN_APPROVAL ( #20, ( #192 ) ) ;
#95 = CC_DESIGN_DATE_AND_TIME_ASSIGNMENT ( #232, #136, ( #192 ) ) ;
#96 = EDGE_LOOP ( 'NONE', ( #209 ) ) ;
#97 = PLANE ( 'NONE',  #15 ) ;
#98 = ADVANCED_FACE ( 'NONE', ( #206, #178 ), #248, .T. ) ;
#99 = AXIS2_PLACEMENT_3D ( 'NONE', #56, #258, #168 ) ;
#100 = ORIENTED_EDGE ( 'NONE', *, *, #105, .F. ) ;
#101 = CARTESIAN_POINT ( 'NONE',  ( 6.982962677686261977E-15, 0.0000000000000000000, 1.999999999999998668 ) ) ;
#102 = ORIENTED_EDGE ( 'NONE', *, *, #241, .F. ) ;
#103 = EDGE_CURVE ( 'NONE', #34, #34, #86, .T. ) ;
#104 = DIRECTION ( 'NONE',  ( 3.491481338843133355E-15, -0.0000000000000000000, 1.000000000000000000 ) ) ;
#105 = EDGE_CURVE ( 'NONE', #148, #148, #201, .T. ) ;
#106 = FACE_OUTER_BOUND ( 'NONE', #242, .T. ) ;
#107 = CARTESIAN_POINT ( 'NONE',  ( 3.000000000000000444, 0.0000000000000000000, -1.177548662351200696E-14 ) ) ;
#108 = DIRECTION ( 'NONE',  ( 1.000000000000000000, 0.0000000000000000000, -3.491481338843133750E-15 ) ) ;
#109 = PERSON_AND_ORGANIZATION ( #195, #175 ) ;
#110 = CARTESIAN_POINT ( 'NONE',  ( 1.047444401652940007E-13, 0.0000000000000000000, 30.00000000000000000 ) ) ;
#111 = COORDINATED_UNIVERSAL_TIME_OFFSET ( 1, 0, .AHEAD. ) ;
#112 = ADVANCED_FACE ( 'NONE', ( #153 ), #97, .T. ) ;
#113 = AXIS2_PLACEMENT_3D ( 'NONE', #126, #214, #30 ) ;
#114 = PLANE ( 'NONE',  #259 ) ;
#115 = ADVANCED_FACE ( 'NONE', ( #235 ), #114, .F. ) ;
#116 = LOCAL_TIME ( 11, 46, 12.00000000000000000, #159 ) ;
#117 = FACE_OUTER_BOUND ( 'NONE', #62, .T. ) ;
#118 = ADVANCED_FACE ( 'NONE', ( #76, #140 ), #37, .T. ) ;
#119 = TOROIDAL_SURFACE ( 'NONE', #38, 3.000000000000000000, 2.000000000000000000 ) ;
#120 = EDGE_LOOP ( 'NONE', ( #26 ) ) ;
#121 = APPROVAL_DATE_TIME ( #234, #39 ) ;
#122 = CARTESIAN_POINT ( 'NONE',  ( 5.000000000000007105, 0.0000000000000000000, 1.999999999999981348 ) ) ;
#123 = DIRECTION ( 'NONE',  ( -3.491481338843133355E-15, 1.224646799147353207E-16, -1.000000000000000000 ) ) ;
#124 = ORIENTED_EDGE ( 'NONE', *, *, #227, .T. ) ;
#125 = CARTESIAN_POINT ( 'NONE',  ( 4.650000000000105160, 0.0000000000000000000, 29.99999999999998224 ) ) ;
#126 = CARTESIAN_POINT ( 'NONE',  ( 2.513866563967056016E-13, -8.817456953860941711E-15, 72.00000000000000000 ) ) ;
#127 = SECURITY_CLASSIFICATION_LEVEL ( 'unclassified' ) ;
#128 = CLOSED_SHELL ( 'NONE', ( #150, #118, #198, #98, #219, #115 ) ) ;
#129 = APPROVAL_STATUS ( 'not_yet_approved' ) ;
#130 = FACE_OUTER_BOUND ( 'NONE', #96, .T. ) ;
#131 = EDGE_LOOP ( 'NONE', ( #124 ) ) ;
#132 = PERSON_AND_ORGANIZATION ( #195, #175 ) ;
#133 = PLANE ( 'NONE',  #154 ) ;
#134 = CARTESIAN_POINT ( 'NONE',  ( 2.478951750578623799E-13, 4.999999999999990230, 70.99999999999998579 ) ) ;
#135 = AXIS2_PLACEMENT_3D ( 'NONE', #228, #24, #164 ) ;
#136 = DATE_TIME_ROLE ( 'creation_date' ) ;
#137 = FACE_OUTER_BOUND ( 'NONE', #25, .T. ) ;
#138 = CARTESIAN_POINT ( 'NONE',  ( 6.982962677686261977E-15, 0.0000000000000000000, 1.999999999999998668 ) ) ;
#139 = CIRCLE ( 'NONE', #151, 4.999999999999999112 ) ;
#140 = FACE_OUTER_BOUND ( 'NONE', #226, .T. ) ;
#141 = DIRECTION ( 'NONE',  ( -3.491481338843133355E-15, 1.224646799147353207E-16, -1.000000000000000000 ) ) ;
#142 = CC_DESIGN_PERSON_AND_ORGANIZATION_ASSIGNMENT ( #207, #205, ( #263 ) ) ;
#143 = ORIENTED_EDGE ( 'NONE', *, *, #103, .F. ) ;
#144 = EDGE_LOOP ( 'NONE', ( #203 ) ) ;
#145 = DIRECTION ( 'NONE',  ( 0.0000000000000000000, 0.0000000000000000000, 1.000000000000000000 ) ) ;
#146 = PLANE ( 'NONE',  #75 ) ;
#147 = EDGE_LOOP ( 'NONE', ( #100 ) ) ;
#148 = VERTEX_POINT ( 'NONE', #125 ) ;
#149 = PRODUCT_RELATED_PRODUCT_CATEGORY ( 'detail', '', ( #160 ) ) ;
#150 = ADVANCED_FACE ( 'NONE', ( #19, #156 ), #55, .T. ) ;
#151 = AXIS2_PLACEMENT_3D ( 'NONE', #180, #104, #64 ) ;
#152 = DIRECTION ( 'NONE',  ( 4.275831445896958607E-31, 1.000000000000000000, 1.224646799147353207E-16 ) ) ;
#153 = FACE_OUTER_BOUND ( 'NONE', #222, .T. ) ;
#154 = AXIS2_PLACEMENT_3D ( 'NONE', #244, #47, #70 ) ;
#155 = APPROVAL_PERSON_ORGANIZATION ( #109, #189, #169 ) ;
#156 = FACE_OUTER_BOUND ( 'NONE', #144, .T. ) ;
#157 = PERSON_AND_ORGANIZATION_ROLE ( 'creator' ) ;
#158 = ORIENTED_EDGE ( 'NONE', *, *, #105, .T. ) ;
#159 = COORDINATED_UNIVERSAL_TIME_OFFSET ( 1, 0, .AHEAD. ) ;
#160 = PRODUCT ( '339053', '339053', '', ( #51 ) ) ;
#161 = FACE_BOUND ( 'NONE', #3, .T. ) ;
#162 = EDGE_LOOP ( 'NONE', ( #171 ) ) ;
#163 = CIRCLE ( 'NONE', #186, 5.000000000000000000 ) ;
#164 = DIRECTION ( 'NONE',  ( 1.000000000000000000, 0.0000000000000000000, -3.491481338843133355E-15 ) ) ;
#165 = VERTEX_POINT ( 'NONE', #225 ) ;
#166 = CALENDAR_DATE ( 2021, 18, 11 ) ;
#167 = DATE_AND_TIME ( #16, #231 ) ;
#168 = DIRECTION ( 'NONE',  ( 4.275831445896958607E-31, 1.000000000000000000, 1.224646799147353207E-16 ) ) ;
#169 = APPROVAL_ROLE ( '' ) ;
#170 = COORDINATED_UNIVERSAL_TIME_OFFSET ( 1, 0, .AHEAD. ) ;
#171 = ORIENTED_EDGE ( 'NONE', *, *, #227, .F. ) ;
#172 =( GEOMETRIC_REPRESENTATION_CONTEXT ( 3 ) GLOBAL_UNCERTAINTY_ASSIGNED_CONTEXT ( ( #23 ) ) GLOBAL_UNIT_ASSIGNED_CONTEXT ( ( #2, #82, #83 ) ) REPRESENTATION_CONTEXT ( 'NONE', 'WORKASPACE' ) );
#173 = ADVANCED_BREP_SHAPE_REPRESENTATION ( '339053', ( #10, #92, #61 ), #172 ) ;
#174 = DIRECTION ( 'NONE',  ( 0.0000000000000000000, 1.000000000000000000, 0.0000000000000000000 ) ) ;
#175 = ORGANIZATION ( 'UNSPECIFIED', 'UNSPECIFIED', '' ) ;
#176 = DESIGN_CONTEXT ( 'detailed design', #255, 'design' ) ;
#177 = CARTESIAN_POINT ( 'NONE',  ( 7.681258945454893382E-14, -2.694222958124176809E-15, 22.00000000000000000 ) ) ;
#178 = FACE_OUTER_BOUND ( 'NONE', #147, .T. ) ;
#179 = LOCAL_TIME ( 11, 46, 12.00000000000000000, #13 ) ;
#180 = CARTESIAN_POINT ( 'NONE',  ( 1.047444401652940007E-13, -3.673940397442059178E-15, 30.00000000000000000 ) ) ;
#181 = PERSON_AND_ORGANIZATION_ROLE ( 'classification_officer' ) ;
#182 = CARTESIAN_POINT ( 'NONE',  ( 7.681258945454893382E-14, 3.749399456654640188E-32, 22.00000000000000000 ) ) ;
#183 = DATE_TIME_ROLE ( 'classification_date' ) ;
#184 = DIRECTION ( 'NONE',  ( 0.0000000000000000000, 1.000000000000000000, 0.0000000000000000000 ) ) ;
#185 = DIRECTION ( 'NONE',  ( 3.491481338843133355E-15, -0.0000000000000000000, 1.000000000000000000 ) ) ;
#186 = AXIS2_PLACEMENT_3D ( 'NONE', #177, #123, #184 ) ;
#187 = APPROVAL_DATE_TIME ( #87, #189 ) ;
#188 = VERTEX_POINT ( 'NONE', #88 ) ;
#189 = APPROVAL ( #251, 'UNSPECIFIED' ) ;
#190 = FACE_OUTER_BOUND ( 'NONE', #239, .T. ) ;
#191 = APPROVAL_PERSON_ORGANIZATION ( #215, #20, #212 ) ;
#192 = PRODUCT_DEFINITION ( 'UNKNOWN', '', #263, #176 ) ;
#193 = DIRECTION ( 'NONE',  ( 3.491481338843133355E-15, -1.224646799147353207E-16, 1.000000000000000000 ) ) ;
#194 = DIRECTION ( 'NONE',  ( 1.000000000000000000, 0.0000000000000000000, -3.730588120380230251E-15 ) ) ;
#195 = PERSON ( 'UNSPECIFIED', 'UNSPECIFIED', 'UNSPECIFIED', ('UNSPECIFIED'), ('UNSPECIFIED'), ('UNSPECIFIED') ) ;
#196 = AXIS2_PLACEMENT_3D ( 'NONE', #138, #52, #31 ) ;
#197 = ORIENTED_EDGE ( 'NONE', *, *, #262, .T. ) ;
#198 = ADVANCED_FACE ( 'NONE', ( #220 ), #41, .F. ) ;
#199 = DIRECTION ( 'NONE',  ( 3.491481338843133355E-15, -0.0000000000000000000, 1.000000000000000000 ) ) ;
#200 = CYLINDRICAL_SURFACE ( 'NONE', #81, 5.000000000000000000 ) ;
#201 = CIRCLE ( 'NONE', #54, 4.650000000000000355 ) ;
#202 = EDGE_CURVE ( 'NONE', #72, #72, #84, .T. ) ;
#203 = ORIENTED_EDGE ( 'NONE', *, *, #249, .T. ) ;
#204 = ORIENTED_EDGE ( 'NONE', *, *, #217, .F. ) ;
#205 = PERSON_AND_ORGANIZATION_ROLE ( 'design_supplier' ) ;
#206 = FACE_OUTER_BOUND ( 'NONE', #120, .T. ) ;
#207 = PERSON_AND_ORGANIZATION ( #195, #175 ) ;
#208 = DIRECTION ( 'NONE',  ( 3.491481338843133355E-15, -0.0000000000000000000, 1.000000000000000000 ) ) ;
#209 = ORIENTED_EDGE ( 'NONE', *, *, #249, .F. ) ;
#210 = CIRCLE ( 'NONE', #113, 3.999999999999998224 ) ;
#211 = CC_DESIGN_PERSON_AND_ORGANIZATION_ASSIGNMENT ( #67, #157, ( #192 ) ) ;
#212 = APPROVAL_ROLE ( '' ) ;
#213 = FACE_OUTER_BOUND ( 'NONE', #260, .T. ) ;
#214 = DIRECTION ( 'NONE',  ( -3.491481338843133355E-15, 1.224646799147353207E-16, -1.000000000000000000 ) ) ;
#215 = PERSON_AND_ORGANIZATION ( #195, #175 ) ;
#216 = ADVANCED_FACE ( 'NONE', ( #137, #213 ), #119, .T. ) ;
#217 = EDGE_CURVE ( 'NONE', #36, #36, #8, .T. ) ;
#218 = CARTESIAN_POINT ( 'NONE',  ( 0.0000000000000000000, 0.0000000000000000000, 0.0000000000000000000 ) ) ;
#219 = ADVANCED_FACE ( 'NONE', ( #130, #161 ), #133, .T. ) ;
#220 = FACE_OUTER_BOUND ( 'NONE', #162, .T. ) ;
#221 = APPROVAL_PERSON_ORGANIZATION ( #252, #39, #90 ) ;
#222 = EDGE_LOOP ( 'NONE', ( #204 ) ) ;
#223 = PERSON_AND_ORGANIZATION_ROLE ( 'creator' ) ;
#224 = AXIS2_PLACEMENT_3D ( 'NONE', #12, #238, #194 ) ;
#225 = CARTESIAN_POINT ( 'NONE',  ( -4.999999999999894307, -3.673940397442059178E-15, 30.00000000000001776 ) ) ;
#226 = EDGE_LOOP ( 'NONE', ( #60 ) ) ;
#227 = EDGE_CURVE ( 'NONE', #188, #188, #210, .T. ) ;
#228 = CARTESIAN_POINT ( 'NONE',  ( -4.542565983319587431E-30, 0.0000000000000000000, -1.301042606982605321E-15 ) ) ;
#229 = EDGE_LOOP ( 'NONE', ( #50 ) ) ;
#230 = CC_DESIGN_PERSON_AND_ORGANIZATION_ASSIGNMENT ( #63, #7, ( #160 ) ) ;
#231 = LOCAL_TIME ( 11, 46, 12.00000000000000000, #111 ) ;
#232 = DATE_AND_TIME ( #11, #116 ) ;
#233 = CARTESIAN_POINT ( 'NONE',  ( 2.478951750578623799E-13, -8.694992273946204985E-15, 70.99999999999998579 ) ) ;
#234 = DATE_AND_TIME ( #253, #49 ) ;
#235 = FACE_OUTER_BOUND ( 'NONE', #65, .T. ) ;
#236 = CARTESIAN_POINT ( 'NONE',  ( 7.681258945454893382E-14, 3.749399456654640188E-32, 22.00000000000000000 ) ) ;
#237 = DIRECTION ( 'NONE',  ( 1.000000000000000000, 0.0000000000000000000, -3.730588120380230251E-15 ) ) ;
#238 = DIRECTION ( 'NONE',  ( 3.491481338843133355E-15, -0.0000000000000000000, 1.000000000000000000 ) ) ;
#239 = EDGE_LOOP ( 'NONE', ( #197 ) ) ;
#240 = AXIS2_PLACEMENT_3D ( 'NONE', #53, #185, #108 ) ;
#241 = EDGE_CURVE ( 'NONE', #48, #48, #163, .T. ) ;
#242 = EDGE_LOOP ( 'NONE', ( #102 ) ) ;
#243 = DATE_AND_TIME ( #66, #68 ) ;
#244 = CARTESIAN_POINT ( 'NONE',  ( 1.047444401652940007E-13, 5.999999999999996447, 30.00000000000000000 ) ) ;
#245 = APPLICATION_PROTOCOL_DEFINITION ( 'international standard', 'config_control_design', 1994, #255 ) ;
#246 = PRODUCT_DEFINITION_SHAPE ( 'NONE', 'NONE',  #192 ) ;
#247 = CC_DESIGN_PERSON_AND_ORGANIZATION_ASSIGNMENT ( #132, #181, ( #69 ) ) ;
#248 = CYLINDRICAL_SURFACE ( 'NONE', #240, 4.650000000000000355 ) ;
#249 = EDGE_CURVE ( 'NONE', #165, #165, #139, .T. ) ;
#250 = AXIS2_PLACEMENT_3D ( 'NONE', #233, #256, #78 ) ;
#251 = APPROVAL_STATUS ( 'not_yet_approved' ) ;
#252 = PERSON_AND_ORGANIZATION ( #195, #175 ) ;
#253 = CALENDAR_DATE ( 2021, 18, 11 ) ;
#254 = DIRECTION ( 'NONE',  ( 4.275831445896958607E-31, 1.000000000000000000, 1.224646799147353207E-16 ) ) ;
#255 = APPLICATION_CONTEXT ( 'configuration controlled 3d designs of mechanical parts and assemblies' ) ;
#256 = DIRECTION ( 'NONE',  ( -3.491481338843133355E-15, 1.224646799147353207E-16, -1.000000000000000000 ) ) ;
#257 = ADVANCED_FACE ( 'NONE', ( #106 ), #146, .T. ) ;
#258 = DIRECTION ( 'NONE',  ( -3.491481338843133355E-15, 1.224646799147353207E-16, -1.000000000000000000 ) ) ;
#259 = AXIS2_PLACEMENT_3D ( 'NONE', #236, #193, #18 ) ;
#260 = EDGE_LOOP ( 'NONE', ( #59 ) ) ;
#261 = ADVANCED_FACE ( 'NONE', ( #190, #117 ), #200, .T. ) ;
#262 = EDGE_CURVE ( 'NONE', #45, #45, #28, .T. ) ;
#263 = PRODUCT_DEFINITION_FORMATION_WITH_SPECIFIED_SOURCE ( 'ANY', '', #160, .NOT_KNOWN. ) ;
ENDSEC;
END-ISO-10303-21;
